Oops, an error
Loading. Please wait.

Landslide Live solo tab

version 3
version 3
310 views 27 this week
3 commentsread comments
1 2 3 4 5
2 more votes to show rating
add to favorites
×
Save as Personal and add changes to this tab that will be seen only by you. Learn more ›
×
You can save this tab as Personal to edit and correct it or add notes. All changes will be seen only by you. Learn more »
launch autoscroll
font size
0
reset
how to read this tab
guitar tuner
edit
Autoscroll
slow
fast
+/-
esc
set tempo
stop
Artist: Fleetwood Mac
Song: Landslide Live in Boston 2004 - https://youtu.be/sMVBP_0OOZY
Part of the song: Solo
Capo on the 3rd fret

[Intro]

e|---------------------------------------------------------------------------|
B|--------1-----0-3--------3-----------3/5-------3---------------------------|
G|----0-----0h2--------0-------0-------------0---------2h4---4---------------|
D|------2----------------0-------0---------0-------0-------0-----------------|
A|--3----------------2-------2---------0---------0-----2---------------------|
E|---------------------------------------------------------------------------|

e|---------------------------------------------------------------------------|
B|------------------------------------------------1p0--1p0----3--------------|
G|--2---0-----------0--0-2-0------0------------0------------0----------------|
D|------0-----0h2-2-------------0-------0---------0---------0----------------|
A|--2---------3------3--------2-----2h3------0---------0---------------------|
E|---------------------------------------------------------------------------|

e|---------------------------------------------------------------------------|
B|------1---0------------------0-3-------3---------3/5------3----------------|
G|------------0------------0h2-------0-------0-----------0-------2h4---4-----|
D|----0-----0------------2-------------0-------0-------0------0------0-------|
A|--2-----2------------3-----------2-------2-------0--------0----2-----------|
E|---------------------------------------------------------------------------|

e|-----------------------------------------3-2-3-3/5\3-2h3--2p0---0----------|
B|----------1----------------------------1----------------------3-----3p1p0--|
G|--2-0-------------0-2-0------0---------------------------------------------|
D|----0-------0h2------------0-------0----------------------0---------0------|
A|--2-----3-------3--------2-----2h3-----0-----------------------------------|
E|---------------------------------------------------------------------------|

e|---------------------------------------------------------------------------|
B|---------------------------------------------------------------------------|
G|--2p0----------------------------------------------------------------------|
D|---------------------------------------------------------------------------|
A|---------------------------------------------------------------------------|
E|---------------------------------------------------------------------------|


************************************

| h  Hammer-on
| p  Pull-off
| /  Slide up
| \  Slide down

************************************

            
            
Suggest correction
Creating personal tab
Creating personal tab
You can edit any tab online and save it as your Personal.

You can edit, replace or remove any tab part or add personal notes – all changes will be seen only by you.

Personal tabs can be accessed anytime from any device, even offline.
Learn more »
Give kudos to tab author, rate the tab!
1 2 3 4 5
comments
print report bad tab
3 comments total.
0 reply
rorymcd98 10 Apr 21, 2017 02:44 PM

Differs a bit in a couple of parts from the video. Noticeable at the end between the 0h2 and the little outro.

0 reply
rorymcd98 10 Jun 12, 2017 09:30 AM

But otherwise good

0 reply
cooper17 172 Sep 24, 2017 05:02 AM

Very nicely done, tricky song despite the simplicity XD

guest
You may want to rate the tab now too:
select rating
Wanna post a correction for this tab? Suggest correction