Oops, an error
Loading. Please wait.
We have an official Rhiannon tab made by UG professional guitarists. Check out the tab »
×
3,459 views 42 this week
no commentswrite comment
1 2 3 4 5
x 3
add to favorites
×
Save as Personal and add changes to this tab that will be seen only by you. Learn more ›
×
You can save this tab as Personal to edit and correct it or add notes. All changes will be seen only by you. Learn more »
launch autoscroll
font size
0
reset
guitar tuner
backing track
0:00
0:00
edit
Autoscroll
slow
fast
+/-
esc
set tempo
stop
Please rate this tabs / leave me a message for more to come...
Bruno from UK

Tempo : 129 bpm
Chords : Capo on III

Intro: x1 00:04
G|----------------------|-
D|---3-3----------------|-
A|-----------3----------|-
E|-1-----1-1-----1/3----|-

00:08
G|------------------|---------------|----------------------|-
D|--------2---------|-----2---------|---3-3----------------|-
A|-0--2h3----3h2--0-|-2h3----3p2----|-----------3----------|-
E|------------------|-------------1-|-1-----1-1-----1/3----|-

Verse 01: x2 00:16 *1st run. *2nd run
G|------------------|---------------|----------------------||-----------|------------|-
D|--------2---------|-----2---------|---3-3----------------||--1h2------|-2h3--------|-
A|-0--2h3----3h2--0-|-2h3----3p2----|-----------3----------||------2h3--|------3h5---|-
E|------------------|-------------1-|-1-----1-1-----1/3----||-----------|------------|-

Chorus 01: x2 00:30
G|-----------------|----------------|----------------|---------------|-
D|-----------------|-3-0---3-3--0---|----------------|-3-0---3-3-0---|-
A|--3--0---3-3-0---|-----3--------3-|--3-0---3-3-0---|-----3-------3-|-
E|-------3-------3-|----------------|------3-------3-|---------------|-

Verse 02: x2 00:46 *1st run. *2nd run
G|------------------|---------------|----------------------||-----------|------------|-
D|--------2---------|-----2---------|---3-3----------------||--1h2------|2h3---------|-
A|-0--2h3----3h2--0-|-2h3----3p2----|-----------3----------||------2h3--|------3h5---|-
E|------------------|-------------1-|-1-----1-1-----1/3----||-----------|------------|-

Chorus 02: x2 00:01 *2nd run. x2
G|-----------------|----------------|----------------|---------------||--------------|-
D|-----------------|-3-0---3-3--0---|----------------|-3-0---3-3-0---||--3-3---0-----|-
A|--3--0---3-3-0---|-----3--------3-|--3-0---3-3-0---|-----3-------3-||------3-------|-
E|-------3-------3-|----------------|------3-------3-|---------------||--------------|-


Instrumental 01:19
Like Verse : x4
G|------------------|---------------|----------------------|-
D|--------2---------|-----2---------|---3-3----------------|-
A|-0--2h3----3h2--0-|-2h3----3p2----|-----------3----------|-
E|------------------|-------------1-|-1-----1-1-----1/3----|-

Bridge
G|----------------------|-
D|-----3-3--------------|-
A|------------3---------|-
E|-1-1----1-1-----1/3---|-

Verse 03: x2 01:52 *1st run. *2nd run
G|-------------------|---------------|--------------------||----------|-----------|-
D|---------2---------|-----2---------|---3-3--------------||-1h2------|-2h3-------|-
A|--0--2h3----3h2--0-|-2h3----3p2----|-----------3--------||-----2h3--|------3h5--|-
E|-------------------|-------------1-|-1-----1-1-----1/3--||----------|-----------|-

Chorus 03: x2 02:07 *2nd run. x8
G|-----------------|----------------|----------------|---------------||--------------|-
D|-----------------|-3-0---3-3--0---|----------------|-3-0---3-3-0---||--3-3---0-----|-
A|--3--0---3-3-0---|-----3--------3-|--3-0---3-3-0---|-----3-------3-||------3-------|-
E|-------3-------3-|----------------|------3-------3-|---------------||--------------|-

Fade out. 02:30 x14
G|------------------|---------------|----------------------|-
D|--------2---------|-----2---------|---3-3----------------|-
A|-0--2h3----3h2--0-|-2h3----3p2----|-----------3----------|-
E|------------------|-------------1-|-1-----1-1-----1/3----|-

End 04:10

            
            
Suggest correction
Creating personal tab
Creating personal tab
You can edit any tab online and save it as your Personal.

You can edit, replace or remove any tab part or add personal notes – all changes will be seen only by you.

Personal tabs can be accessed anytime from any device, even offline.
Learn more »
Give kudos to tab author, rate the tab!
1 2 3 4 5
comments
print report bad tab
guest
You may want to rate the tab now too:
select rating
Wanna post a correction for this tab? Suggest correction