Oops, an error
Loading. Please wait.

Mas Feliz Que La Mierda tab

version 1
version 1

Whole song

by Flema
73 views 1 this week
no commentswrite comment
1 2 3 4 5
3 more votes to show rating
add to favorites
×
Save as Personal and add changes to this tab that will be seen only by you. Learn more ›
×
You can save this tab as Personal to edit and correct it or add notes. All changes will be seen only by you. Learn more »
launch autoscroll
font size
0
reset
how to read this tab
guitar tuner
edit
Autoscroll
slow
fast
+/-
esc
set tempo
stop
Esta es la verción que mas me gusta, la escuché en un tema,
en vivo y despues la saqué de oido... espero que les guste como a mi!!

Parte: 'Solo en la cama...' Entra Guitarra y Voz juntos
|------------------------------------------|
|------------------------------------------|
|------------------------------------------|
|---2h3p2-------------------------2h3p2----|
|--3-----3--2h3p2---2h3p2------2-3-----3---|
|----------3-----3-3-----3-3-5-------------|

|------------------------------------------|
|------------------------------------------|
|------------------2-----------------------|
|---2h3p2------2-3---3--3-3-0-2-----2------|
|--3-----3-3-5------------------3-5---3----|
|------------------------------------------|

Parte mas rapida:
(estas son las notas que yo uso)
|---------------------------------------|
|-------------------6-------------------|
|-5---------5-5-579-5-5---5-------------|
|-5-5-5-579-5-5-579-3-5-5-5-------------|
|-3-5-5-579-3-3-357---3-5-3-------------|
|---3-3-357-------------3---------------|

Lírica:

SOLO EN LA CAMA
MIRANDO AL TECHO
SIN UN AMIGO
CON UN 'RESERO'
PERO POR ESO
NO EH DE SUFRIR
CON MI VINITO SOY FELIZ

SOLO EN LA CAMA
MIRANDO AL TECHO
CON MI BOLCITA
DE PEGAMENTO
PERO POR ESO
NO EH DE SUFRIR
CON MI VINITO SOY FELIZ

SOLO EN LA CAMA MIRANDO AL TECHO
NO ESTA MI CHICA, VIVE MUY LEJOS
PERO POR ESO, NO EH DE SUFRIRM
MIRANDO TELE SOY FELIZ.

            
            
Suggest correction
Creating personal tab
Creating personal tab
You can edit any tab online and save it as your Personal.

You can edit, replace or remove any tab part or add personal notes – all changes will be seen only by you.

Personal tabs can be accessed anytime from any device, even offline.
Learn more »
Give kudos to tab author, rate the tab!
1 2 3 4 5
comments
print report bad tab
guest
Wanna post a correction for this tab? Suggest correction