Oops, an error
Loading. Please wait.

No Tengo Nada tab

version 2
version 2

Whole song

by Flemita
32 views 1 this week
no commentswrite comment
1 2 3 4 5
3 more votes to show rating
add to favorites
×
Save as Personal and add changes to this tab that will be seen only by you. Learn more ›
×
You can save this tab as Personal to edit and correct it or add notes. All changes will be seen only by you. Learn more »
launch autoscroll
font size
0
reset
how to read this tab
guitar tuner
edit
Autoscroll
slow
fast
+/-
esc
set tempo
stop
Hola, este es mi primer trabajo y es de este grupaso de punk,
espero que les guste y les ayude en algo...

INTRO

e|---------------------------------------------------|
B|---------------------------------------------------|
G|---------------------------------------------------|
D|-6/7-77-777--6/7-77-777----7/9-99-999--7/9-99-999--|
A|-6/7-77-777--6/7-77-777----7/9-99-999--7/9-99-999--|
E|-4/5-55-555--4/5-55-555----5/7-77-777--5/7-77-777--|

e|---------------------------------------------------|
B|---------------------------------------------------|
G|---------------------------------------------------|
D|-9/11-1111--111111----11/12-1212--121212--12-------|
A|-9/11-1111--111111----11/12-1212--121212--12-------|
E|-7/9--9-9---9-9-9-----9-/10-1010--101010--10-------|


   Tengo algunos tatuajes   no tengo suerte   no tengo fu  turo
e|------------------------------------------------------------------|
B|------------------------------------------------------------------|
G|------------------------------------------------------------------|
D|--77-777--77-777--77-777--77-777--77-777--77-777--7-777--121212---|
A|--77-777--77-777--77-777--77-777--77-777--77-777--7-777--121212---|
E|--55-555--55-555--5--555--55-555--75-555--55-555--5-555--101010---|


    tengo malas noticias    todos me   escapan    no tengo la  buro
e|------------------------------------------------------------------|
B|------------------------------------------------------------------|
G|------------------------------------------------------------------|
D|--12-121212--1212-121212--1212-1212--141414-1414--141414-14--7777-|
A|--12-121212--1212-121212--1212-1212--141414-1414--141414-14--7777-|
E|--10-101010--1010-101010--1010-1010--121212-1212--121212-14--5555-|


    se me acabo la droga   no tengo a nadie   que me  pro  veeea
e|------------------------------------------------------------------|
B|------------------------------------------------------------------|
G|------------------------------------------------------------------|
D|--77-777--77-777--77-777--77-777--77-777--77-777--7-777--121212---|
A|--77-777--77-777--77-777--77-777--77-777--77-777--7-777--121212---|
E|--55-555--55-555--5--555--55-555--75-555--55-555--5-555--101010---|


    no me importa una mierda    soy conformista    vivo de    fiesta!
e|------------------------------------------------------------------|
B|------------------------------------------------------------------|
G|------------------------------------------------------------------|
D|--12-121212--1212-121212--1212-1212--141414-1414--141414-14--7777-|
A|--12-121212--1212-121212--1212-1212--141414-1414--141414-14--7777-|
E|--10-101010--1010-101010--1010-1010--121212-1212--121212-14--5555-|


CORO

            No    tengo    nada   pero  soy fe  liiiiz
e|-------------------------------------------------------|
B|-------------------------------------------------------|
G|-------------------------------------------------------|
D|--77--66--1212--121212--141414--1414---7---6---44-444--|
A|--77--66--1212--121212--141414--1414---7---6---44-444--|
E|--55--44--1010--101010--121212--1212---5---4---22-222--|


     No    tengo    nada   pero  soy fe  liiiiz
e|-----------------------------------------------|
B|-----------------------------------------------|
G|-----------------------------------------------|
D|--1212--121212--141414--1414---7---6---44-444--|
A|--1212--121212--141414--1414---7---6---44-444--|
E|--1010--101010--121212--1212---5---4---22-222--|


          No    necesitoooooo      te tengo a ti
e|-----------------------------------------------|
B|-----------------------------------------------|
G|-----------------------------------------------|
D|--1212--121212--141414--1414-------------------|
A|--1212--121212--141414--1414-------------------|
E|--1010--101010--121212--1212-------------------|


           hey!     hey!     hey!     hey!
e|-----------------------------------------------|
B|-----------------------------------------------|
G|-----------------------------------------------|
D|---77777-----77777----77777----77777-----------|
A|---77777-----77777----77777----77777-----------|
E|---55555-----55555----55555----55555-----------|


   Tengo algunos tatuajes   no tengo suerte      no tengo fu   turo
e|-------------------------------------------------------------------|
B|-------------------------------------------------------------------|
G|-------------------------------------------------------------------|
D|--99-99-999--99-99-999---99-99-999--99-999--99-999--99-999--141414-|
A|--99-99-999--99-99-999---99-99-999--99-999--99-999--99-999--141414-|
E|--77-77-777--77-77-777---77-77-777--77-777--77-777--77-777--121212-|


    tengo malas noticias    todos me   escapan    no tengo la   buro
e|-------------------------------------------------------------------|
B|-------------------------------------------------------------------|
G|-------------------------------------------------------------------|
D|--14-141414--1414-141414--1414-1414-161616-1616--161616-16--99-999-|
A|--14-141414--1414-141414--1414-1414-161616-1616--161616-16--99-999-|
E|--12-121212--1212-121212--1212-1212-141414-1414--141414-14--77-999-|


   se me acabo la droga     no tengo a nadie       que me  pro  vea
e|-------------------------------------------------------------------|
B|-------------------------------------------------------------------|
G|-------------------------------------------------------------------|
D|--99-99-999--99-99-999---99-99-999--99-999--99-999--99-999--141414-|
A|--99-99-999--99-99-999---99-99-999--99-999--99-999--99-999--141414-|
E|--77-77-777--77-77-777---77-77-777--77-777--77-777--77-777--121212-|


    no me importa una mierda    soy conformista     vivo de    fiesta!
e|-------------------------------------------------------------------|
B|-------------------------------------------------------------------|
G|-------------------------------------------------------------------|
D|--14-141414--1414-141414--1414-1414-161616-1616--161616-16--99-999-|
A|--14-141414--1414-141414--1414-1414-161616-1616--161616-16--99-999-|
E|--12-121212--1212-121212--1212-1212-141414-1414--141414-14--77-999-|


CORO

            No    tengo    nada   pero  soy fe  liiiiz
e|-------------------------------------------------------|
B|-------------------------------------------------------|
G|-------------------------------------------------------|
D|--99--88--1414--141414--161616--1616---9---8---66-666--|
A|--99--88--1414--141414--161616--1616---9---8---66-666--|
E|--77--77--1212--121212--141414--1414---7---6---44-444--|


     No    tengo    nada   pero  soy fe  liiiiz
e|-----------------------------------------------|
B|-----------------------------------------------|
G|-----------------------------------------------|
D|--1414--141414--161616--1616---9---8---66-666--|
A|--1414--141414--161616--1616---9---8---66-666--|
E|--1212--121212--141414--1414---7---6---44-444--|


          No    necesitoooooo      te tengo a ti
e|-----------------------------------------------|
B|-----------------------------------------------|
G|-----------------------------------------------|
D|--1414--141414--161616--1616-------------------|
A|--1414--141414--161616--1616-------------------|
E|--1212--121212--141414--1414-------------------|


          hey!     hey!     hey!     hey!   vamos!!!
e|--------------------------------------------------|
B|--------------------------------------------------|
G|--------------------------------------------------|
D|---99999-----99999----99999----99999--------------|
A|---99999-----99999----99999----99999--------------|
B|---77777-----77777----77777----77777--------------|


            No    tengo    nada   pero  soy fe  liiiiz
e|-------------------------------------------------------|
B|-------------------------------------------------------|
G|-------------------------------------------------------|
D|--99--88--1414--141414--161616--1616---9---8---66-666--|
A|--99--88--1414--141414--161616--1616---9---8---66-666--|
E|--77--77--1212--121212--141414--1414---7---6---44-444--|


     No    tengo    nada   pero  soy fe  liiiiz
e|-----------------------------------------------|
B|-----------------------------------------------|
G|-----------------------------------------------|
D|--1414--141414--161616--1616---9---8---66-666--|
A|--1414--141414--161616--1616---9---8---66-666--|
E|--1212--121212--141414--1414---7---6---44-444--|


          No    necesitoooooo      te tengo a ti
e|-----------------------------------------------|
B|-----------------------------------------------|
G|-----------------------------------------------|
D|--1414--141414--161616--1616-------------------|
A|--1414--141414--161616--1616-------------------|
E|--1212--121212--141414--1414-------------------|

e|----------------------|
B|----------------------|
G|----------------------|
D|---99999-----99999----|
A|---99999-----99999----|
E|---77777-----77777----|


Este es todo mi trabajo amigos! es la primera canción
que publico en la cuerda...
talvez haya pasado por alto alguna falla,
pero creo que esta 100% correcto...
adios!!!

            
            
Suggest correction
Creating personal tab
Creating personal tab
You can edit any tab online and save it as your Personal.

You can edit, replace or remove any tab part or add personal notes – all changes will be seen only by you.

Personal tabs can be accessed anytime from any device, even offline.
Learn more »
Give kudos to tab author, rate the tab!
1 2 3 4 5
comments
print report bad tab
guest
Wanna post a correction for this tab? Suggest correction