Oops, an error
Loading. Please wait.

Peace intro tab

49 views 1 this week
no commentswrite comment
1 2 3 4 5
3 more votes to show rating
add to favorites
×
Save as Personal and add changes to this tab that will be seen only by you. Learn more ›
×
You can save this tab as Personal to edit and correct it or add notes. All changes will be seen only by you. Learn more »
launch autoscroll
font size
0
reset
how to read this tab
guitar tuner
edit
Autoscroll
slow
fast
+/-
esc
set tempo
stop
About this tab version
This specific tab is based off the Original Song by Fletcher Pilon (https://www.youtube.com/watch?v=CX124OzyIGI), to get the timing right listen to this video or the song peace on his album Banjo. Was this info helpful? Yes No
Artist: Fletcher Pilon
Song: Peace
Part of the song: Intro

Capo 6

This specific tab is based off the Original Song by Fletcher Pilon
(https://www.youtube.com/watch?v=CX124OzyIGI), to get the timing right listen to this 
video or the song peace
on his album Banjo.


Chords:
G 320033
C x32010

[Intro]                  G                               C              G                              C
e|-----------------------------------------------------------------------------------------------------------|
B|---------3----------------3------------3-----------0---h1----------------3-----------3-----------0---h1----|
G|----2/4-----4/2p0---------0------0-----------0-----0----0--0-------------0-----0-----------0-----0----0--0-|
D|--------------------------0---0-----0-----0-----0-------------0h2p0------0--0-----0-----0-----0------------|
A|-----------------------------------------------------------------------------------------------------------|
E|-----------------------3----------------------------------------------3------------------------------------|

            G                                           G                                       G [Verse]
e|-----------------------------------------------------------------------------------------------------------|
B|------------3-----------3------------3------------------3-----------3-----------3--------------------------|
G|------------0-----0-----------0-2/4-----4/2p0--2--0-----0-----0-----------0-----------0-----0--------------|
D|--0h2p0-----0--0-----0-----0----------------------------0--0-----0-----0-----0-----0-----------------------|
A|-----------------------------------------------------------------------------------------2-----------------|
E|---------3-------------------------------------------3-----------------------------------------3-----------|


****************************************

| h hammer-on
| / slide
| p pull-off

****************************************
 

            
            
Suggest correction
Creating personal tab
Creating personal tab
You can edit any tab online and save it as your Personal.

You can edit, replace or remove any tab part or add personal notes – all changes will be seen only by you.

Personal tabs can be accessed anytime from any device, even offline.
Learn more »
Give kudos to tab author, rate the tab!
1 2 3 4 5
comments
print report bad tab
guest
You may want to rate the tab now too:
select rating
Wanna post a correction for this tab? Suggest correction