Oops, an error
Loading. Please wait.

Bret You Got It Going On bass

version 1
version 1

Whole song

Interactive

4,940 views 1 this week
4 commentsread comments
1 2 3 4 5
x 3
add to favorites
×
Save as Personal and add changes to this tab that will be seen only by you. Learn more ›
×
You can save this tab as Personal to edit and correct it or add notes. All changes will be seen only by you. Learn more »
launch autoscroll
font size
0
reset
guitar tuner
edit
Autoscroll
slow
fast
+/-
esc
set tempo
stop
Author
Difficulty
-------------------------------------------------------------------------------
	   "BRET YOU GOT IT GOING ON" - Flight of the Conchords
-------------------------------------------------------------------------------

Tabbed By : Superkisseler

Tuning:Standard

I know this isn't a proper symbol but this is my key:


VERSE:

G|-------------------------------------------------------------------------|
D|--7----------------5-----------------------------------------------------|
A|--------7---5----------7-------------------------------------------------|
E|-------------------------------------------------------------------------|


CHORUS:


G|-------------------------------------------------------------------------|
D|-7--7-----------------------------5--------------------------------------|
A|-----------7--7---5---5-----------------7--------------------------------|
E|-------------------------------------------------------------------------|


CHORUS PART 2:


G|---------------------------------------------------------------------------|
D|-9--9-------------------------7--------------------------------------------|
A|-----------9--9---7---7---------9------------------------------------------|
E|---------------------------------------------------------------------------|

and it's pretty self explanitory

            
            
Suggest correction
Creating personal tab
Creating personal tab
You can edit any tab online and save it as your Personal.

You can edit, replace or remove any tab part or add personal notes – all changes will be seen only by you.

Personal tabs can be accessed anytime from any device, even offline.
Learn more »
Give kudos to tab author, rate the tab!
1 2 3 4 5
comments
print report bad tab
4 comments total. Showing first comments.
0 reply
foamykage 30 May 03, 2009 09:04 PM

how do you hold 2 frets at the same time on 1 string? it would just be 7th fret on D string that way...
D|--5S7---- ???

0 reply
Superkisseler 793 May 11, 2009 05:21 PM

Yea you could but 5 and 7 does make different sound. And obviously you cannot have been playing bass long if you can't hold two frets on one string?

0 reply
rockinrudolfo 10 Sep 10, 2009 02:36 PM

this song doesnt even have a bass line

guest
You may want to rate the tab now too:
select rating
Wanna post a correction for this tab? Suggest correction