Oops, an error
Loading. Please wait.

Most Beautiful Girl In The Room tab

version 3
version 3

Whole song

Interactive

186,683 views 195 this week
9 commentsread comments
1 2 3 4 5
x 62
add to favorites
×
Save as Personal and add changes to this tab that will be seen only by you. Learn more ›
×
You can save this tab as Personal to edit and correct it or add notes. All changes will be seen only by you. Learn more »
launch autoscroll
font size
0
reset
how to read this tab
guitar tuner
edit
Autoscroll
slow
fast
+/-
esc
set tempo
stop
Author
Notes:
 - There are two guitars for this song. They are played together as you can see below.
 - All of the hammer-ons and pull-offs are played very fast.
 - Listen to the song for the strumming. Play it by ear. It is very hard to tab
exact strumming pattern, but I have the basics.
 - Any time you see something in "quotes," they are lyrics to help you know were you are
the song.


[Intro]

e|--9h10p9-7h9p7-5h7p5--------|
B|---------------------5h7p5--|
G|----------------------------|
D|----------------------------|   x1  Guitars 1 and 2
A|----------------------------|
E|----------------------------|

============================================================================

Guitar 1
e|--5-----5h7p5-------------------------------9h10p9-7h9p7-5h7p5---------|
B|--7-7-----------5-----5h7p5---3-----3h5p3----------------------5h7p5---|
G|--6---6---------6-6-----------4-4--------------------------------------|
D|--0-----------0-6---6-------6-4---4-------4----------------------------|
A|----------------0-------------0----------------------------------------|
E|-----------------------------------------------------------------------|

Guitar 2 Playing with a gentle flowing motion along strings
e|--5-----------------------------------------9h10p9-7h9p7-5h7p5---------|
B|--7-------------5-------------3--------------------------------5h7p5---|
G|--6-------------6-------------4----------------------------------------|
D|--0-------------6-------------4----------------------------------------|
A|----------------0-------------0----------------------------------------|
E|-----------------------------------------------------------------------|

============================================================================

Guitar 1
e|--5-----5h7p5------------------------------------7h9p7-0---------------|
B|--7-7-----------5-----5h7p5---3-----3h5p3----7-------------------------|
G|--6---6---------6-6-----------4-4------------6-------------------------|
D|--0-----------0-6---6-------6-4---4-------4--7-7-----------------------|
A|----------------0-------------0----------------------------------------|
E|-----------------------------------------------------------------------|

Guitar 2 Playing with a gentle flowing motion along strings
e|--5--------------------------------------------------------------------|
B|--7-------------5-------------3------------------7-----5---------------|
G|--6-------------6-------------4------------------6-----6---------------|
D|--0-------------6-------------4------------------7-----6---------------|
A|----------------0-------------0------------------------0---------------|
E|-----------------------------------------------------------------------|

============================================================================

Guitar 1
e|--5-----5h7p5-------------------------------9h10p9-7h9p7-5h7p5---------|
B|--7-7-----------5-----5h7p5---3-----3h5p3----------------------5h7p5---|
G|--6---6---------6-6-----------4-4--------------------------------------|
D|--0-----------0-6---6-------6-4---4-------4----------------------------|
A|----------------0-------------0----------------------------------------|
E|-----------------------------------------------------------------------|

Guitar 2 Playing with a gentle flowing motion along strings
e|--5-----------------------------------------9h10p9-7h9p7-5h7p5---------|
B|--7-------------5-------------3--------------------------------5h7p5---|
G|--6-------------6-------------4----------------------------------------|
D|--0-------------6-------------4----------------------------------------|
A|----------------0-------------0----------------------------------------|
E|-----------------------------------------------------------------------|

============================================================================

Guitar 1
e|--5-----5h7p5------------------------------------7h9p7-0--7-8-9-5------|
B|--7-7-----------5-----5h7p5---3-----3h5p3----7-------------------------|
G|--6---6---------6-6-----------4-4------------6-------------------------|
D|--0-----------0-6---6-------6-4---4-------4--7-7-----------------------|
A|----------------0-------------0----------------------------------------|
E|-----------------------------------------------------------------------|

Guitar 2 Playing with a gentle flowing motion along strings
e|--5--------------------------------------------------------------------|
B|--7-------------5-------------3------------------7-----5---------------|
G|--6-------------6-------------4------------------6-----6---------------|
D|--0-------------6-------------4------------------7-----6---------------|
A|----------------0-------------0------------------------0---------------|
E|-----------------------------------------------------------------------|

============================================================================

Guitar 1
e|--5-----5h7p5----------------------------------------------------------|
B|--7-7-----------5-----5h7p5---3-----3h5p3----7---5---------------------|
G|--6---6---------6-6-----------4-4------------6---6---------------------|
D|--0-----------0-6---6-------6-4---4-------4--7-7-6-6-------------------|
A|----------------0-------------0------------------0---------------------|
E|-----------------------------------------------------------------------|

Guitar 2 Playing with a gentle flowing motion along strings
e|--5--------------------------------------------------------------------|
B|--7-------------5-------------3--------------7---5---------------------|
G|--6-------------6-------------4--------------6---6---------------------|
D|--0-------------6-------------4--------------7-7-6-6-------------------|
A|----------------0-------------0------------------0---------------------|
E|-----------------------------------------------------------------------|

============================================================================

Guitar 1                                     "Definately in the top 3..."
e|--5-----5h7p5----------------------------------------------------------|
B|--7-7-----------5-----5h7p5---3-----3h5p3---7--------------------------|
G|--6---6---------6-6-----------4-4-----------6--------------------------|
D|--0-----------0-6---6-------6-4---4-------4-7--------------------------|
A|----------------0-------------0-------------0--------------------------|
E|-----------------------------------------------------------------------|

Guitar 2 Playing with a gentle flowing motion along strings
e|--5--------------------------------------------------------------------|
B|--7-------------5-------------3-------------7--------------------------|
G|--6-------------6-------------4-------------6--------------------------|
D|--0-------------6-------------4-------------7--------------------------|
A|----------------0-------------0-------------0--------------------------|
E|-----------------------------------------------------------------------|

============================================================================


[Intro]  

e|--9h10p9-7h9p7-5h7p5--------|
B|---------------------5h7p5--|
G|----------------------------|
D|----------------------------|   x1  Guitars 1 and 2
A|----------------------------|
E|----------------------------|

============================================================================

Guitar 1
  "Good looking girls on the street....."
e|--5-----5h7p5-------------------------------9-7\5-7-5/7-5--------------|
B|--7-7-----------5-----5h7p5---3-----3h5p3------------------------------|
G|--6---6---------6-6-----------4-4--------------------------------------|
D|--0-----------0-6---6-------6-4---4-------4----------------------------|
A|----------------0-------------0----------------------------------------|
E|-----------------------------------------------------------------------|

Guitar 2 Playing with a gentle flowing motion along strings
e|--5--------------------------------------------------------------------|
B|--7-------------5-------------3-------------7*-------------------------|
G|--6-------------6-------------4-------------6*-let ring----------------|
D|--0-------------6-------------4-------------7*-------------------------|
A|----------------0-------------0-------------0*-------------------------|
E|-----------------------------------------------------------------------|

============================================================================

Guitar 1                        "Wha is she doing....?"
e|--5-----5h7p5----------------------------------------------------------|
B|--7-7-----------5-----5h7p5---3----------------------------------------|
G|--6---6---------6-6-----------4----------------------------------------|
D|--0-----------0-6---6-------6-4----------------------------------------|
A|----------------0-------------0----------------------------------------|
E|-----------------------------------------------------------------------|

Guitar 2 Playing with a gentle flowing motion along strings
e|--5--------------------------------------------------------------------|
B|--7-------------5-------------3----------------------------------------|
G|--6-------------6-------------4----------------------------------------|
D|--0-------------6-------------4----------------------------------------|
A|----------------0-------------0----------------------------------------|
E|-----------------------------------------------------------------------|

============================================================================

1:00

Guitar 1
e|--5-----5h7p5------------------------------------7h9p7-0--7-8-9-5------|
B|--7-7-----------5-----5h7p5---3-----3h5p3----7-------------------------|
G|--6---6---------6-6-----------4-4------------6-------------------------|
D|--0-----------0-6---6-------6-4---4-------4--7-7-----------------------|
A|----------------0-------------0----------------------------------------|
E|-----------------------------------------------------------------------|

Guitar 2
e|--5-5-5-5-5-5-5--------------------------------------------------------|
B|--7-7-7-7-7-7-7-5-5-5-5-5-5-5-3-3-3-3-3-3-3-3-3--7-7-7-5-5-5-5-5-5-----|
G|--6-6-6-6-6-6-6-6-6-6-6-6-6-6-4-4-4-4-4-4-4-4-4--6-6-6-6-6-6-6-6-6-----|
D|--0-0-0-0-0-0-0-6-6-6-6-6-6-6-4-4-4-4-4-4-4-4-4--7-7-7-6-6-6-6-6-6-----|
A|----------------0-0-0-0-0-0-0-0-0-0-0-0-0-0-0-0--------0-0-0-0-0-0-----|
E|-----------------------------------------------------------------------|

============================================================================

Guitar 1
e|--5-----5h7p5-------------------------------9h10p9-7h9p7-5h7p5---------|
B|--7-7-----------5-----5h7p5---3-----3h5p3----------------------5h7p5---|
G|--6---6---------6-6-----------4-4--------------------------------------|
D|--0-----------0-6---6-------6-4---4-------4----------------------------|
A|----------------0-------------0----------------------------------------|
E|-----------------------------------------------------------------------|

Guitar 2
e|--5-5-5-5-5-5-5--------------------------------------------------------|
B|--7-7-7-7-7-7-7-5-5-5-5-5-5-5-3-3-3-3-3-3-3-7-7-7-7-5-5-5-5------------|
G|--6-6-6-6-6-6-6-6-6-6-6-6-6-6-4-4-4-4-4-4-4-6-6-6-6-6-6-6-6------------|
D|--0-0-0-0-0-0-0-6-6-6-6-6-6-6-4-4-4-4-4-4-4-7-7-7-7-6-6-6-6------------|
A|----------------0-0-0-0-0-0-0-0-0-0-0-0-0-0-0-0-0-0-0-0-0-0------------|
E|-----------------------------------------------------------------------|

============================================================================

Guitar 1
e|--5-----5h7p5----------------------------------------------------------|
B|--7-7-----------5-----5h7p5---3-----3h5p3---7-7-7-5-5-5----------------|
G|--6---6---------6-6-----------4-4-----------6-6-6-6-6-6----------------|
D|--0-----------0-6---6-------6-4---4-------4-7-7-7-6-6-6----------------|
A|----------------0-------------0-------------0-0-0-0-0-0----------------|
E|-----------------------------------------------------------------------|

Guitar 2
e|--5-5-5-5-5-5-5--------------------------------------------------------|
B|--7-7-7-7-7-7-7-5-5-5-5-5-5-5-3-3-3-3-3-3-3-7-7-7-5-5-5----------------|
G|--6-6-6-6-6-6-6-6-6-6-6-6-6-6-4-4-4-4-4-4-4-6-6-6-6-6-6----------------|
D|--0-0-0-0-0-0-0-6-6-6-6-6-6-6-4-4-4-4-4-4-4-7-7-7-6-6-6----------------|
A|----------------0-0-0-0-0-0-0-0-0-0-0-0-0-0-0-0-0-0-0-0----------------|
E|-----------------------------------------------------------------------|

============================================================================

Guitar 1
e|--5-----5h7p5-------------------------------9h10p9-7h9p7-5h7p5---------|
B|--7-7-----------5-----5h7p5---3-----3h5p3----------------------5h7p5---|
G|--6---6---------6-6-----------4-4--------------------------------------|
D|--0-----------0-6---6-------6-4---4-------4----------------------------|
A|----------------0-------------0----------------------------------------|
E|-----------------------------------------------------------------------|

Guitar 2
e|--5-5-5-5-5-5-5--------------------------------------------------------|
B|--7-7-7-7-7-7-7-5-5-5-5-5-5-5-3-3-3-3-3-3-3-7-7-7-7-5-5-5-5------------|
G|--6-6-6-6-6-6-6-6-6-6-6-6-6-6-4-4-4-4-4-4-4-6-6-6-6-6-6-6-6------------|
D|--0-0-0-0-0-0-0-6-6-6-6-6-6-6-4-4-4-4-4-4-4-7-7-7-7-6-6-6-6------------|
A|----------------0-0-0-0-0-0-0-0-0-0-0-0-0-0-0-0-0-0-0-0-0-0------------|
E|-----------------------------------------------------------------------|


============================================================================

Guitar 1                                        "Here we go..."
e|--5-----5h7p5----------------------------------------------------------|
B|--7-7-----------5-----5h7p5---3-----3h5p3---7--------------------------|
G|--6---6---------6-6-----------4-4-----------6--------------------------|
D|--0-----------0-6---6-------6-4---4-------4-7--------------------------|
A|----------------0-------------0-------------0--------------------------|
E|-----------------------------------------------------------------------|

Guitar 2
e|--5-5-5-5-5-5-5--------------------------------------------------------|
B|--7-7-7-7-7-7-7-5-5-5-5-5-5-5-3-3-3-3-3-3-3-7--------------------------|
G|--6-6-6-6-6-6-6-6-6-6-6-6-6-6-4-4-4-4-4-4-4-6--------------------------|
D|--0-0-0-0-0-0-0-6-6-6-6-6-6-6-4-4-4-4-4-4-4-7--------------------------|
A|----------------0-0-0-0-0-0-0-0-0-0-0-0-0-0-0--------------------------|
E|-----------------------------------------------------------------------|

============================================================================

Guitar 1
e|--5-5-5-5-5----------------------------------|
B|--7-7-7-7-7-5-5-5-5-5-3-3-3-3-3-7-7-7-5-5-5--|
G|--6-6-6-6-6-6-6-6-6-6-4-4-4-4-4-6-6-6-6-6-6--|
D|--0-0-0-0-0-6-6-6-6-6-4-4-4-4-4-7-7-7-6-6-6--|
A|------------0-0-0-0-0-0-0-0-0-0-0-0-0-0-0-0--|
E|---------------------------------------------|

Guitar 2
e|--5-5-5-5-5----------------------------------|
B|--7-7-7-7-7-5-5-5-5-5-3-3-3-3-3-7-7-7-5-5-5--|
G|--6-6-6-6-6-6-6-6-6-6-4-4-4-4-4-6-6-6-6-6-6--|
D|--0-0-0-0-0-6-6-6-6-6-4-4-4-4-4-7-7-7-6-6-6--|
A|------------0-0-0-0-0-0-0-0-0-0-0-0-0-0-0-0--|
E|---------------------------------------------|

============================================================================

Guitar 1
e|--5-5-5-5-5---------------------9h10p9-7h9p7-5h7p5--------|
B|--7-7-7-7-7-5-5-5-5-5-3-3-3-3-3--------------------5h7p5--|
G|--6-6-6-6-6-6-6-6-6-6-4-4-4-4-4---------------------------|
D|--0-0-0-0-0-6-6-6-6-6-4-4-4-4-4---------------------------|
A|------------0-0-0-0-0-0-0-0-0-0---------------------------|
E|----------------------------------------------------------|

Guitar 2
e|--5-5-5-5-5-----------------------------------------------|
B|--7-7-7-7-7-5-5-5-5-5-3-3-3-3-3-7-7-7-5-5-5-5-------------|
G|--6-6-6-6-6-6-6-6-6-6-4-4-4-4-4-6-6-6-6-6-6-6-------------|
D|--0-0-0-0-0-6-6-6-6-6-4-4-4-4-4-7-7-7-6-6-6-6-------------|
A|------------0-0-0-0-0-0-0-0-0-0-0-0-0-0-0-0-0-------------|
E|----------------------------------------------------------|

============================================================================

Guitar 1
e|--5-5-5-5-5----------------------------------|
B|--7-7-7-7-7-5-5-5-5-5-3-3-3-3-3-7-7-7-5-5-5--|
G|--6-6-6-6-6-6-6-6-6-6-4-4-4-4-4-6-6-6-6-6-6--|
D|--0-0-0-0-0-6-6-6-6-6-4-4-4-4-4-7-7-7-6-6-6--|
A|------------0-0-0-0-0-0-0-0-0-0-0-0-0-0-0-0--|
E|---------------------------------------------|

Guitar 2
e|--5-5-5-5-5----------------------------------|
B|--7-7-7-7-7-5-5-5-5-5-3-3-3-3-3-7-7-7-5-5-5--|
G|--6-6-6-6-6-6-6-6-6-6-4-4-4-4-4-6-6-6-6-6-6--|
D|--0-0-0-0-0-6-6-6-6-6-4-4-4-4-4-7-7-7-6-6-6--|
A|------------0-0-0-0-0-0-0-0-0-0-0-0-0-0-0-0--|
E|---------------------------------------------|

============================================================================

Guitar 1                             "I do my moves, I do my dance moves..."
e|--5-5-5-5-5------------------------|
B|--7-7-7-7-7-5-5-5-5-5-3-3-3-3-3-7--|
G|--6-6-6-6-6-6-6-6-6-6-4-4-4-4-4-6--|
D|--0-0-0-0-0-6-6-6-6-6-4-4-4-4-4-7--|
A|------------0-0-0-0-0-0-0-0-0-0-0--|
E|-----------------------------------|

Guitar 2
e|--5-5-5-5-5------------------------|
B|--7-7-7-7-7-5-5-5-5-5-3-3-3-3-3-7--|
G|--6-6-6-6-6-6-6-6-6-6-4-4-4-4-4-6--|
D|--0-0-0-0-0-6-6-6-6-6-4-4-4-4-4-7--|
A|------------0-0-0-0-0-0-0-0-0-0-0--|
E|-----------------------------------|

============================================================================

Guitar 1
E|-------------------------------------------------------------------------|
B|-------------------------------------------------------------------------|
G|--9-6-9-6-9-6-9-6-9-7-9-7-9-7-9-7-9-6-9-6-9-6-9-6-9-10-9-10-9-10-9-7-----|
D|-------------------------------------------------------------------------|
A|-------------------------------------------------------------------------|
E|-------------------------------------------------------------------------|

Guitar 2
E|-------------------------------------------------------------------------|
B|--5---------------5---------------5---------------5----------------------|
G|--6---------------7---------------6---------------7----------------------|
D|--6---------------7---------------6---------------7----------------------|
A|-------------------------------------------------------------------------|
E|-------------------------------------------------------------------------|

Note: Play this once then on the second time, don't play the 9-10-9-10 bit. Play 9-7-9-7
louder until he says, "I'll buy you a cabab!"

============================================================================

Guitar 1
e|--5-5-5-5-5----------------------------------|
B|--7-7-7-7-7-5-5-5-5-5-3-3-3-3-3-7-7-7-5-5-5--|
G|--6-6-6-6-6-6-6-6-6-6-4-4-4-4-4-6-6-6-6-6-6--|
D|--0-0-0-0-0-6-6-6-6-6-4-4-4-4-4-7-7-7-6-6-6--|
A|------------0-0-0-0-0-0-0-0-0-0-0-0-0-0-0-0--|
E|---------------------------------------------|

Guitar 2
e|--5-5-5-5-5----------------------------------|
B|--7-7-7-7-7-5-5-5-5-5-3-3-3-3-3-7-7-7-5-5-5--|
G|--6-6-6-6-6-6-6-6-6-6-4-4-4-4-4-6-6-6-6-6-6--|
D|--0-0-0-0-0-6-6-6-6-6-4-4-4-4-4-7-7-7-6-6-6--|
A|------------0-0-0-0-0-0-0-0-0-0-0-0-0-0-0-0--|
E|---------------------------------------------|


============================================================================

Guitar 1
e|--5-5-5-5-5---------------------9h10p9-7h9p7-5h7p5--------|
B|--7-7-7-7-7-5-5-5-5-5-3-3-3-3-3--------------------5h7p5--|
G|--6-6-6-6-6-6-6-6-6-6-4-4-4-4-4---------------------------|
D|--0-0-0-0-0-6-6-6-6-6-4-4-4-4-4---------------------------|
A|------------0-0-0-0-0-0-0-0-0-0---------------------------|
E|----------------------------------------------------------|

Guitar 2
e|--5-5-5-5-5-----------------------------------------------|
B|--7-7-7-7-7-5-5-5-5-5-3-3-3-3-3-7-7-7-5-5-5---------------|
G|--6-6-6-6-6-6-6-6-6-6-4-4-4-4-4-6-6-6-6-6-6---------------|
D|--0-0-0-0-0-6-6-6-6-6-4-4-4-4-4-7-7-7-6-6-6---------------|
A|------------0-0-0-0-0-0-0-0-0-0-0-0-0-0-0-0---------------|
E|----------------------------------------------------------|

============================================================================

Guitar 1                                        Play this on the 2nd time.
e|--5-5-5-5-5----------------------------------|--5*--|
B|--7-7-7-7-7-5-5-5-5-5-3-3-3-3-3-7-7-7-5-5-5--|--7*--|
G|--6-6-6-6-6-6-6-6-6-6-4-4-4-4-4-6-6-6-6-6-6--|--6*--|
D|--0-0-0-0-0-6-6-6-6-6-4-4-4-4-4-7-7-7-6-6-6--|--0*--|
A|------------0-0-0-0-0-0-0-0-0-0-0-0-0-0-0-0--|------|
E|---------------------------------------------|------|
                                                         (This riff x2)
Guitar 2
e|--5-5-5-5-5----------------------------------|--5*--|
B|--7-7-7-7-7-5-5-5-5-5-3-3-3-3-3-7-7-7-5-5-5--|--7*--|
G|--6-6-6-6-6-6-6-6-6-6-4-4-4-4-4-6-6-6-6-6-6--|--6*--|
D|--0-0-0-0-0-6-6-6-6-6-4-4-4-4-4-7-7-7-6-6-6--|--0*--|
A|------------0-0-0-0-0-0-0-0-0-0-0-0-0-0-0-0--|------|
E|---------------------------------------------|------|
                                                "Cause you're so beautiful."

============================================================================
"...model..."
Guitar 1
E|----------------------------------------------------|
B|----------------------------------------------------|
G|--9-6-9-6-9-6-9-6-9-6-9-6-9-6-9-6-9-6-9-6-9-6-9-6*--|
D|----------------------------------------------------|
A|----------------------------------------------------|
E|----------------------------------------------------|

Guitar 2
E|----------------------------------------------------|
B|--5-5-5-5-5-5-5-5-5-5-5-5-5-5-5-5-5-5-5-5-5-5-5-5*--|
G|--6-6-6-6-6-6-6-6-6-6-6-6-6-6-6-6-6-6-6-6-6-6-6-6*--|
D|--6-6-6-6-6-6-6-6-6-6-6-6-6-6-6-6-6-6-6-6-6-6-6-6*--|
A|--0-0-0-0-0-0-0-0-0-0-0-0-0-0-0-0-0-0-0-0-0-0-0-0*--|
E|----------------------------------------------------|

============================================================================
Note: This is right after the part where is says, "Ya he ya he ya he"

Guitar 1
e|--------------------------------9h10p9-7h9p7-5h7p5--------|
B|---------------------------------------------------5h7p5--|
G|----------------------------------------------------------|
D|----------------------------------------------------------|
A|----------------------------------------------------------|
E|----------------------------------------------------------|
                                                              (This riff x2)
Guitar 2
e|--5-5-5-5-5-----------------------------------------------|
B|--7-7-7-7-7-5-5-5-5-5-3-3-3-3-3-7-7-7-5-5-5---------------|
G|--6-6-6-6-6-6-6-6-6-6-4-4-4-4-4-6-6-6-6-6-6---------------|
D|--0-0-0-0-0-6-6-6-6-6-4-4-4-4-4-7-7-7-6-6-6---------------|
A|------------0-0-0-0-0-0-0-0-0-0-0-0-0-0-0-0---------------|
E|----------------------------------------------------------|

============================================================================

Guitar 1
e|----------------------------------------------------------|
B|----------------------------------------------------------|
G|----------------------------------------------------------|
D|----------------------------------------------------------|
A|----------------------------------------------------------|
E|----------------------------------------------------------|

Guitar 2
e|--5-5-5-5-5---------------------------------5*------------|
B|--7-7-7-7-7-5-5-5-5-5-3-3-3-3-3-7-7-7-5-5-5-7*-5*-3*-2*---|
G|--6-6-6-6-6-6-6-6-6-6-4-4-4-4-4-6-6-6-6-6-6-6*-6*-4*-2*---|
D|--0-0-0-0-0-6-6-6-6-6-4-4-4-4-4-7-7-7-6-6-6-0*-6*-4*-2*---|
A|------------0-0-0-0-0-0-0-0-0-0-0-0-0-0-0-0----0*-0*-0*---|
E|----------------------------------------------------------|



************************************

| h  Hammer-on
| p  Pull-off
| /  Slide up
| \  Slide down

************************************

            
            
Suggest correction
Creating personal tab
Creating personal tab
You can edit any tab online and save it as your Personal.

You can edit, replace or remove any tab part or add personal notes – all changes will be seen only by you.

Personal tabs can be accessed anytime from any device, even offline.
Learn more »
comments
print report bad tab
9 comments total. Showing first comments.
0 reply
minoperic 10 Apr 22, 2009 03:11 AM

i can't believe there aren't any comments on here.

Nice job man!

You even have the hammers and all! :D

4.9/5

0 reply
RelientK_V_Fan 133 Aug 20, 2009 03:42 PM

nice tab

0 reply
xcodeman7x 53 Oct 27, 2009 06:41 PM

At the very beginning, after "... are the most beautiful girl in the..." right there, there is a little lick on one of the guitars. I don't see it tabbed out. It is at 0:16 in the video. Just wondering.

guest
You may want to rate the tab now too:
select rating
Wanna post a correction for this tab? Suggest correction