Oops, an error
Loading. Please wait.

Good Soldier tab

version 2
version 2

Whole song

by Flobots
4,872 views 3 this week
1 commentread comment
1 2 3 4 5
x 9
add to favorites
×
Save as Personal and add changes to this tab that will be seen only by you. Learn more ›
×
You can save this tab as Personal to edit and correct it or add notes. All changes will be seen only by you. Learn more »
launch autoscroll
font size
0
reset
how to read this tab
guitar tuner
edit
Autoscroll
slow
fast
+/-
esc
set tempo
stop
Author
Difficulty
I took the structure of this tab from "flobots tabs", I just my version of the 
song. And this is my first tab so be nice :] enjoy




INTRO/CHORUS:
e-----------------------------------3----...----------------|
B---3-----7---8----7----3----2------3----...----------------|
G-----------------------------------0(x5)...----------------|
D-----------------------------------0----...----------------|
A-2--2--5--5-7--7-5--5-2--2-0--0----2----...----------------|
E-----------------------------------3----...----------------|

Today, You don't have to be a soldier
Don't have to be a soldier, stand down
It's okay to be as you were
Be as you were again.

VERSE PART I:
e-----------------------------------------------------------|
B--3----2---0--2--------------------------------------------|
G-----------------------------------------------------------|
D-----------------------------------------------------------|
A-2--2-0-0----0-0-------------------------------------------|
E----------3-3----------------------------------------------|



Is it a scheme? Is it a Vision?
Is it a dream? Is it a nightmare?
Or is it a competition?
And if it is, what if we don't fight fair?
What's bald in the morning but in the evening has white hairs?
What's the cause of global warming and could it be these things right here?
I've got an idea that might not reach anyone for another light year
Got a hit list and a cloud of witnesses which is pricier
My tears are mightier than my fears
So mighty Earth provides me hurt that I keep buried until I convert it to writing
VERSE PART 2:
e-----------------------------------------------------------|
B-3-3-2-0-0-2-3-3-7-5-5-3-----------------------------------|
G-----------------------------------------------------------|
D-----------------------------------------------------------|
A-2-2-0-----0-2-2-5-4-4-2-----------------------------------|
E-------3-3-------------------------------------------------|
I was wounded
I was injured
I was made to move to Denver
I was taken through a new adventure
Paint stripped from it's first fixture
I was placed in another picture
I was rushed to a new landscape
And ripped away from family scraped into a politicians mistake

PRE-CHORUS:
Normal chords:
           Em                 G
And what's left of talents in chests beneath oceans
       Em                    G
Welled up behind eyelids has yet to be salvaged
  Em    
A world of emotions
  G                       A
A guess that it might be okay

That it could be all right if expressed today

[CHORUS]

Today, You don't have to be a soldier
Don't have to be a soldier, stand down
It's okay to be as you were
Be as you were again.

[VERSE PART II]

Am I a woman raised man-machine
Damaging everything I touch by not caring enough
Or too much
Am I far flung fantasy
Setting free enmity
And making friends from enemies
And bridges for the in-between's

[VERSE PART I]

For the highwayman on a low road
The tired back with a large load
The trials spanned till I found hope
And I found more
When I slo mo'ed
Enough of the back to face front
Let those in the pack of the race run
I'm needing an evener pace one too hasty
Makes mistakes
Can you carry a song
As strong as your arms can bear
That you keep from harm
And it will be there
When you go wrong
Make a heart from your bond
Your treasure is right here

[PRE-CHORUS]

And what's left of talents in chests beneath oceans
Welled up behind eyelids has yet to be salvaged
A world of emotions
A guess that it might be okay
That it could be all right if expressed today

[CHORUS 2x]

Today, You don't have to be a soldier
Don't have to be a soldier, stand down
It's okay to be as you were
Be as you were again.

Today, You don't have to be a soldier
Don't have to be a soldier, stand down
It's okay to be as you were
Be as you were again.

            
            
Suggest correction
Creating personal tab
Creating personal tab
You can edit any tab online and save it as your Personal.

You can edit, replace or remove any tab part or add personal notes – all changes will be seen only by you.

Personal tabs can be accessed anytime from any device, even offline.
Learn more »
comments
print report bad tab
1 comment total.
0 reply
tallNDawkward 10 Jul 30, 2015 02:59 PM

this is awesome. it's definitely mostly right there's just something different going on during every other playthrough of the verse part. something like this possibly

e-----------------------------------------------------------|
B--3----2---0--2-------3------7--------8-------7------------|
G-----------------------------------------------------------|
D-----------------------------------------------------------|
A-2--2-0-0----0-0----2---2--5---5----7---7---5---5----------|
E----------3-3----------------------------------------------|

guest
You may want to rate the tab now too:
select rating
Wanna post a correction for this tab? Suggest correction