Oops, an error
Loading. Please wait.

Handlebars intro tab

version 1
version 1

Intro

Whole song

by Flobots
106,075 views 12 this week
9 commentsread comments
1 2 3 4 5
x 11
add to favorites
×
Save as Personal and add changes to this tab that will be seen only by you. Learn more ›
×
You can save this tab as Personal to edit and correct it or add notes. All changes will be seen only by you. Learn more »
launch autoscroll
font size
0
reset
how to read this tab
guitar tuner
backing track
0:00
0:00
edit
Autoscroll
slow
fast
+/-
esc
set tempo
stop
Author
----------------------------------------------------------------------------
                             Handlebars - Flobots
----------------------------------------------------------------------------
*IN PROCESS*
Tabbed by: AJ Russ
Email:awade991@yahoo.com

Tuning:standard

Ok, people i was getting annoyed that no one has posted the tab for this song anywhere 
i decided to start one myself.
Okay! this only took me like 10 mins and its not much of the song cause im still in the 
of tabbing it, but im putting it up here so people can start one for themselves.
This may sound a little off too but hey at least i started working on it.


e|------5----------------------------------3-----------6---6--10--6----------|
B|----6---6---------5-------------6------5---5-------6---8-------------------|
G|--7------------5----5---------5------5-----------7-------------------------|
D|------------7--------------7-------------------8---------------------------|
A|-------------------------8-------------------------------------------------|
E|---------------------------------------------------------------------------|


*if you partially palm mute it then it sounds very close*


| /  slide up
| \  slide down
| h  hammer-on
| p  pull-off
| ~  vibrato
| +  harmonic
| x  Mute note
===============================================================================
www.flobots.com

            
            
Suggest correction
Creating personal tab
Creating personal tab
You can edit any tab online and save it as your Personal.

You can edit, replace or remove any tab part or add personal notes – all changes will be seen only by you.

Personal tabs can be accessed anytime from any device, even offline.
Learn more »
comments
print report bad tab
9 comments total. Showing first comments.
+1 reply
xwafflex 134 Feb 22, 2008 10:02 PM

e|------------6---6--10--6-----5--8--5------3--5--3---|
B|----------6---8------------6------------5-----------|
G|--------7-------------------------------------------|
D|------8-------------------------------------------7-|
A|----------------------------------------------------|
E|----------------------------------------------------|

Finished it for ya. Just immediately repeat, and you have the riff for the entire song.

+2 reply
CanadianMaple09 10 Apr 18, 2008 12:32 PM

Some of this is right but some is a bit off. The other tab for this song on here is better and it has the chords too.

0 reply
SRV217 231 Jul 04, 2008 05:51 PM

this is wrong

guest
You may want to rate the tab now too:
select rating
Wanna post a correction for this tab? Suggest correction