Oops, an error
Loading. Please wait.

Handlebars intro tab

version 2
version 2

Intro

Whole song

by Flobots
27,107 views 6 this week
2 commentsread comments
1 2 3 4 5
x 15
add to favorites
×
Save as Personal and add changes to this tab that will be seen only by you. Learn more ›
×
You can save this tab as Personal to edit and correct it or add notes. All changes will be seen only by you. Learn more »
launch autoscroll
font size
0
reset
how to read this tab
guitar tuner
backing track
0:00
0:00
edit
Autoscroll
slow
fast
+/-
esc
set tempo
stop
Heres the intro to handlebars by flobots, in standard tuning.It's really the whole song, 
keep playing it over and over. Enjoy!


e:------5---------------------------------------------------6----------10----|
B:---6-----6--------5--------------6---------8-----------6---------11------11|
G:7--------------5-----5--------7---------9-----9-----7--------12------------|
D:------------7--------------8--------10-----------8-------------------------|
A:------------------------8--------------------------------------------------|
E:---------------------------------------------------------------------------|
PM..........................................................................

e:----------8------------5-------|
B:------10-----10-----8----------|
G:--10-------------9-------------|
D:--------------------------7----|
A:-------------------------------|
E:-------------------------------|

  ...............................

            
            
Suggest correction
Creating personal tab
Creating personal tab
You can edit any tab online and save it as your Personal.

You can edit, replace or remove any tab part or add personal notes – all changes will be seen only by you.

Personal tabs can be accessed anytime from any device, even offline.
Learn more »
comments
print report bad tab
2 comments total.
-1 reply
dsi rocks 10 Apr 11, 2009 01:44 AM

that is the best one i have seen

0 reply
nickteitell 54 Sep 27, 2017 07:42 PM

Play the last bit as
e - - - - - 5 - - -
b - 5-8- - - - - -
g - - - - - - - - - -
d - - - - - - 7 - -

guest
Wanna post a correction for this tab? Suggest correction