Oops, an error
Loading. Please wait.

White Flag Warrior bass

by Flobots
3,787 views 1 this week
4 commentsread comments
1 2 3 4 5
x 3
add to favorites
×
Save as Personal and add changes to this tab that will be seen only by you. Learn more ›
×
You can save this tab as Personal to edit and correct it or add notes. All changes will be seen only by you. Learn more »
launch autoscroll
font size
0
reset
guitar tuner
edit
Autoscroll
slow
fast
+/-
esc
set tempo
stop
Author
Difficulty
-------------------------------------------------------------------------------
			     WHITE FLAG WARRIOR - Flobots
-------------------------------------------------------------------------------
This is my first tab, but there are NONE out there for this song & I love it, so I had 
tab it out to share! Enjoy, Criticism welcome, -Archer

Tabbed By : Archer_9981
e-mail: N/A

Tuning:Standard
Playing Note: You hammer on the 3(G), not the 0(E). I wasn't sure to put the (h) before 
after the note being hammered.

Intro
G|-------------------------------------------------------------------------|
D|-------------------------------------------------------------------------|
A|-------------------------------------------------------------------------|
E|--5--5--0--1--------5--5--0--1------5-----5-----5----5--5----------------|

Verse
G|-------------------------------------------------------------------------|
D|-------------------------------------------------------------------------|
A|-------------------------------------------------------------------------|
E|--5-00h35-3-5---5-00h35-0-1----5-00h35-3-5----5-00h35-0-1----------------|

G|-------------------------------------------------------------------------|
D|-------------------------------------------------------------------------|
A|-------------------------------------------------------------------------|
E|--5-00h35-3-5----5-00h35-0-1----5-00h35-5--------------------------------|

Bridge
G|-------------------------------------------------------------------------|
D|-------------------------------------------------------------------------|
A|-------------------------------------------------------------------------|
E|--5--5--0--1--1--1--5--5--0--1--1--1--5--5--0--1--1--1--5--5--0--1--1--1-|

G|-------------------------------------------------------------------------|
D|-------------------------------------------------------------------------|
A|-------------------------------------------------------------------------|
E|--5--5--0--1--1--1--5--5--0--1--1--1--5--5--0--1--5--5--0--1--1--1-------|

Chorus
G|-------------------------------------------------------------------------|
D|-------------------------------------------------------------------------|
A|-------------------------------------------------------------------------|
E|--5--5--0--1----5--5--0--1----5--5--0--1----5--5-------------------------|

Chorus w/ instrumental
G|-------------------------------------------------------------------------|
D|-----------------------------------------------------------5--5--0--1----|
A|---------------------------------------------5--5--0--1------------------|
E|---5--5--0--1----5--5--0--1----5--5--0--1--------------------------------|

G|-------------------------------------------------------------------------|
D|--3--3-------------------------------------------------------------------|
A|--------0--1-------------------------------------------------------------|
E|--------------1--1---1---------------------------------------------------|

Ending
G|----------------------------------------------------------------------------|
D|----------------------------------------------------------------------------|
A|----------------------------------------------------------------------------|
E|--5--5--0--1-(8x)-----------------------------------------------------------|

ORDER:
Intro  (1x)
Verse  (1x)
Bridge (1x)
Chorus (1x)
Verse  (2x)
Bridge (1x)
Chorus w/ instrumental (1x)
Bridge (1x)
Chorus (1x)
Ending (1x)

| /  slide up
| \  slide down
| h  hammer-on
| p  pull-off
| ~  vibrato
| +  harmonic
| x  Mute note
============================================================================

            
            
Suggest correction
Creating personal tab
Creating personal tab
You can edit any tab online and save it as your Personal.

You can edit, replace or remove any tab part or add personal notes – all changes will be seen only by you.

Personal tabs can be accessed anytime from any device, even offline.
Learn more »
Give kudos to tab author, rate the tab!
1 2 3 4 5
comments
print report bad tab
4 comments total. Showing first comments.
0 reply
fr8train54 10 Oct 24, 2010 12:53 PM

eh, the intro and bridges are right. lol.

-1 reply
fr8train54 10 Oct 24, 2010 01:04 PM

This is more or less the way it goes,

Intro
G|-------------------------------------------------------------------------|
D|-------------------------------------------------------------------------|
A|-------------------------------------------------------------------------|
E|--5--5--0--1--------5--5--0--1------5-----5-----5----5--5----------------|

Verse
G|------2---2------2----------------------2---2------2---------------------|
D|-------------------------------------------------------------------------|
A|--0-0---0----0-0--------------------0-0---0----0-0-----------------------|
E|-------------------0-1-------------------------------0-1-----------------|

G|------2---2------2----------------------2---0------2---------------------|
D|------------------------------------------2------------------------------|
A|--0-0---0----0-0--------------------0-0--------0-0-----------------------|
E|-------------------0-1-------------------------------0-1-----------------|

Bridge
G|-------------------------------------------------------------------------|
D|-------------------------------------------------------------------------|
A|-------------------------------------------------------------------------|
E|--5-5-3p0-h1-1-1-/7-5-5-3p0-h1-1-1-/7-5-5-3p0-h1-1-1-/7-5-5--------------|

-1 reply
fr8train54 10 Oct 24, 2010 01:04 PM

Intro
G|-------------------------------------------------------------------------|
D|-------------------------------------------------------------------------|
A|-------------------------------------------------------------------------|
E|--5--5--0--1--------5--5--0--1------5-----5-----5----5--5----------------|

Verse
G|------2---2------2----------------------2---2------2---------------------|
D|-------------------------------------------------------------------------|
A|--0-0---0----0-0--------------------0-0---0----0-0-----------------------|
E|-------------------0-1-------------------------------0-1-----------------|

G|------2---2------2----------------------2---0------2---------------------|
D|------------------------------------------2------------------------------|
A|--0-0---0----0-0--------------------0-0--------0-0-----------------------|
E|-------------------0-1-------------------------------0-1-----------------|

Bridge
G|-------------------------------------------------------------------------|
D|-------------------------------------------------------------------------|
A|-------------------------------------------------------------------------|
E|--5-5-3p0-h1-1-1-/7-5-5-3p0-h1-1-1-/7-5-5-3p0-h1-1-1-/7-5-5--------------|

guest
You may want to rate the tab now too:
select rating
Wanna post a correction for this tab? Suggest correction