Oops, an error
Loading. Please wait.
We have an official Float tab made by UG professional guitarists. Check out the tab »
×
2,740 views 1 this week
no commentswrite comment
1 2 3 4 5
2 more votes to show rating
add to favorites
×
Save as Personal and add changes to this tab that will be seen only by you. Learn more ›
×
You can save this tab as Personal to edit and correct it or add notes. All changes will be seen only by you. Learn more »
launch autoscroll
font size
0
reset
guitar tuner
edit
Autoscroll
slow
fast
+/-
esc
set tempo
stop
Author
Bass does nothing until about 0:53
G------------------------------|
D-----7--5--7--5------7--------|
A----------------5--5----------| x2
E------------------------------|
(0:53)Sick and tired of what to say.....

G--------------------|--------------------------|
D--------5---------7-|---------5----------------|
A---3---------5------|----3--------5------------|
E--------------------|--------------------------|
(1:12)Don't sink the boat........that you built..

G---------5-5-5---7-7---7---5-----------------|
D--7-7-7---5-5-----7-------------7-7---5------|
A---7-7---------------------------7-----------|  x2
E---------------------------------------------|
(1:30)That you built to keep afloat....

G----------------7-7---7--5-------------------------|
D---7-7-7-7-7-----7-----------7-7---5---------------|
A----7-7-7-7-------------------7-7------------------|  x2
E---------------------------------------------------|
(1:48)Singled out for who you are.....

G-----------------------|---------------------------|
D---------------5-------|-------------5----7--------|
A-------7---5-------7---|----7----5-----------------|
E-----------------------|---------------------------|
(2:07)It's all you can.....It's all you can...

G------------5-5-5-----7-7---7--5------------------|
D---7-7-7-----5-5-------7----------7-7---5---------|
A----7-7----------------------------7--------------|  x2
E--------------------------------------------------|
(2:17)

G----------------7-7---7--5-------------------------|
D---7-7-7-7-7-----7-----------7-7---5---------------|
A----7-7-7-7-------------------7-7------------------|  x2
E---------------------------------------------------|
(2:35)No matter where...

G------------------------------------------|
D------------5-5-----------7-7-------------|
A-----3-3-----5-5----5-5----7-7------------| x2
E------3-3------------5-5------------------|
(2:53)Don't sink the boat....

G---------------------------------------------|
D-----------5-5---------------7---------------|
A----3-3------5-5---5-5-5-5-5-----------------|
E-----3-3------------5-5-5-5------------------|
(3:12)Don't sink the boat...that you built....

G---------5-5-5---7-7---7---5-----------------|
D--7-7-7---5-5-----7-------------7-7---5------|
A---7-7---------------------------7-----------|  x2
E---------------------------------------------|
(3:21)That you built to keep afloat...

G---------5-5-5---7-7---7---5-----------------|
D--7-7-7---5-5-----7-------------7-7---5------|
A---7-7---------------------------7-----------|  x6
E---------------------------------------------|
(3:39)A ripe old age...

G---------5-5-5---7-7---7---5-----------------|
D--7-7-7---5-5-----7-------------7------------|
A---7-7---------------------------------------|
E---------------------------------------------|
(4:33)

Enjoy, if you catch a mistake somewhere, let me know.

            
            
Suggest correction
Creating personal tab
Creating personal tab
You can edit any tab online and save it as your Personal.

You can edit, replace or remove any tab part or add personal notes – all changes will be seen only by you.

Personal tabs can be accessed anytime from any device, even offline.
Learn more »
Give kudos to tab author, rate the tab!
1 2 3 4 5
comments
print report bad tab
guest
You may want to rate the tab now too:
select rating
Wanna post a correction for this tab? Suggest correction