Oops, an error
Loading. Please wait.

Wanderlust bass

1,334 views 1 this week
1 commentread comment
1 2 3 4 5
2 more votes to show rating
add to favorites
×
Save as Personal and add changes to this tab that will be seen only by you. Learn more ›
×
You can save this tab as Personal to edit and correct it or add notes. All changes will be seen only by you. Learn more »
launch autoscroll
font size
0
reset
guitar tuner
edit
Autoscroll
slow
fast
+/-
esc
set tempo
stop
Author
Artist: Flogging Molly
Bassist: Nathan Maxwell
Album: Within a Mile of Home

Intro:
G---------------------------------------------------------------------------------------]
D-----------------------------------------------2-2-2-2-2-0------------------------555--]
A-----0--2-3-5-0---0-2-3-2-----0-2-3-5-0--------------------3--0-2-3-5-3--3-3-----------]
E---3-------------------------3-------------------------------3-------------------------]

Trans:
G------------------------------------------------]
D------------------------------------------------]
A-----0-2---3-3-2-0-2-----0-2---3-3-2-0-2--------]
E---3------3-----------3------3------------------]

Verse:
G-------------------------------------------------------------------------------------]
D-------------------------------------------2-2-2-2-2-0-------------------------------]
A--------0-2-3-5-0-0-2-3-2-----0-2-3-5-0----------------3----0-2-3-5-0-0-2-3-2--------]
E------3---------------------3-----------------------------3--------------------------]

	         G-------------------------------------------------]
	         D-------------------------------------------------]
	         A-----0000-3333-----------------------------------]
	         E-------------------00000000----------------------]

          G---------------------------------------------------------------------------]
End       D----0000000000000000--------------------------(2nd)-0000000000-------------]
Verse     A-----------------------33333333--------23----------------------33-22-00----]
*Rpt      E--------------------------------333333-------------------------------------]
once

Chorus
G------------------------------------------------------------------------------------------]
D--------------------------------------------------------------0000------------------------]
A---0-2----3-3-2-0-2------0-2-----3-3-2-0-2------0-2----3-3-2-------------0-2---3-3-2-0-2--]
E-3------3--------------3-------3--------------3------3----------------3-----3-------------]

             G-----0-----0---------------------------------------------]
Bridge      D--------0-----0--2-----2----------0-----0---0-----0-------]
X 4         A---------------------2-----2---------------------0-----0--]
             E---------------------------------3-----3-----------------]

My first tab, I think its mostly right, didn’t see any of this tab on the web so I
I might throw one out there. For some of the repeats you’ll just need to listen and figure
out yourself. Please give feed back and enjoy.

            
            
Suggest correction
Creating personal tab
Creating personal tab
You can edit any tab online and save it as your Personal.

You can edit, replace or remove any tab part or add personal notes – all changes will be seen only by you.

Personal tabs can be accessed anytime from any device, even offline.
Learn more »
Give kudos to tab author, rate the tab!
1 2 3 4 5
comments
print report bad tab
1 comment total.
0 reply
thunderhawk 535 Dec 06, 2008 05:09 PM

ya ill take! its pretty good. i think some of it is kinda confuseing but i think i can figure it out

guest
You may want to rate the tab now too:
select rating
Wanna post a correction for this tab? Suggest correction