Oops, an error
Loading. Please wait.

Cruise chords

version 3
version 3

Whole song

Interactive

15,883 views 12 this week
3 commentsread comments
1 2 3 4 5
x 7
add to favorites
×
Save as Personal and add changes to this tab that will be seen only by you. Learn more ›
×
You can save this tab as Personal to edit and correct it or add notes. All changes will be seen only by you. Learn more »
launch autoscroll
font size
0
reset
transpose
0
reset
display chords
guitar tuner
edit
Autoscroll
slow
fast
+/-
esc
set tempo
stop
Author
Difficulty
Strumming
There is no strumming pattern for this song yet. and get +5 IQ
Florida Georgia Line,   "Cruise"


Please use power chords for this song, it sounds much better!
    F   Gm   Bb   Eb
e|--1----3----6---11--|
B|--1----3----6---11--|
G|--2----3----7---12--|
D|--3----5----8---13--|
A|--3----5----8---13--|
E|--1----3----6---11--|


(intro)
Bb
Baby you a song
    F                     Gm               Eb
You make me wanna roll my windows down and cruise

   Bb           F             Gm         Eb
e|-s6-------------------------s6-------------------------|
B|----6------------6-6---8-6-----6-----------------------|
G|--------------s7-----7-----------------8-8-8-8-8-7-5---|
D|------8---5-8--------------------8---5---------------8-|
A|--------8--------------------------8-------------------|
E|-------------------------------------------------------|

   Bb            F            Gm         Eb
e|-s6-------------------------s6-------------------------|
B|----6------------6-6---8-6-----6-----------------------|
G|--------------s7-----7-----------------8-8-8-8-8-7-5---|
D|------8---5-8--------------------8---5---------------8-|
A|--------8--------------------------8-------------------|
E|-------------------------------------------------------|
                                        Hey baby


(verse)
           Bb
Yeah, when I first saw that bikini top on her
Bb
She’s poppin’ right out of the South Georgia water
Bb                                    F 
Thought, "Oh, good lord, she had them long tanned legs"
         Gm               Eb
Couldn’t help myself so I walked up and said


(chorus)
Bb
Baby you a song
    F                     Gm               Eb   
You make me wanna roll my windows down and cruise
       Bb                     F
Down a back road blowin’ stop signs through the middle
      Gm                    Eb
Every little farm town with you
        Bb                     F
In this brand new Chevy with a lift kit
             Gm                            Eb
Would look a hell of a lot better with you up in it
   Bb
So baby you a song
    F                     Gm               Eb
You make me wanna roll my windows down and cruise

   Bb            F            Gm         Eb
e|-s6-------------------------s6-------------------------|
B|----6------------6-6---8-6-----6-----------------------|
G|--------------s7-----7-----------------8-8-8-8-8-7-5---|
D|------8---5-8--------------------8---5---------------8-|
A|--------8--------------------------8-------------------|
E|-------------------------------------------------------|


(verse)
        Bb
She was sippin’ on Southern and singin’ Marshall Tucker
Bb
We were falling in love in the sweet heart of summer
Bb                           F
She hopped right up into the cab of my truck and said
Gm                    Eb
"Fire it up, let’s go get this thing stuck"


(chorus)
Bb
Baby you a song
    F                     Gm               Eb   
You make me wanna roll my windows down and cruise
       Bb                     F
Down a back road blowin’ stop signs through the middle
      Gm                    Eb
Every little farm town with you
        Bb                     F
In this brand new Chevy with a lift kit
             Gm                            Eb
Would look a hell of a lot better with you up in it
   Bb
So baby you a song
    F                     Gm               Eb
You make me wanna roll my windows down and cruise


(instrumental-bridge)
   Bb        F             Gm        Eb             Bb        F
e|-------------------------------------------------------------------|
B|-3-6-6-6-6-4-4-3h4p3-----3-6-6-6-6-4-4-3h4p3--------3----6-----11--|
G|---------------------5-3---------------------5-3-s3---s7---s12-----|
D|-------------------------------------------------------------------|
A|-------------------------------------------------------------------|
E|-------------------------------------------------------------------|
           Gm            Eb
e|-----13-b15-r13------------13----13--------|
B|-s15------------r13----b15----15----r13----|
G|--------------------15------------------15-|
D|-------------------------------------------|
A|-------------------------------------------|
E|-------------------------------------------|

        Bb           F
When that summer sun fell to its knees
 Gm                 Eb
I looked at her and she looked at me
     Bb               F             Gm
And I turned on those KC lights and drove all night
          Eb
'Cause it felt so right, her and I, man we felt so right

(dolce)
  Bb
I put it in park and
F
Grabbed my guitar
    Gm
And strummed a couple chords
    Eb
And sang from the heart
Bb                    F
Girl you sure got the beat in my chest bumpin’
Gm                   Eb 
Hell I can’t get you out of my head

(no chord)
Baby you a song

You make me wanna roll my windows down and cruise

Down a back road blowin’ stop signs through the middle

Every little farm town with you


(chorus-out)
Bb
Baby you a song
    F                     Gm               Eb   
You make me wanna roll my windows down and cruise
       Bb                     F
Down a back road blowin’ stop signs through the middle
      Gm                    Eb
Every little farm town with you
        Bb                     F
In this brand new Chevy with a lift kit
             (no chord)
Would look a hell of a lot better with you up in it
         Bb
Come on, baby you a song
    F                     Gm               Eb
You make me wanna roll my windows down and cruise
Bb   F   Gm   Eb,
       Come on girl
                           Bb     F   Gm   Eb,          Bb
Get those windows down and cruise              aww yea

            
            
Suggest correction
Creating personal tab
Creating personal tab
You can edit any tab online and save it as your Personal.

You can edit, replace or remove any tab part or add personal notes – all changes will be seen only by you.

Personal tabs can be accessed anytime from any device, even offline.
Learn more »
comments
print report bad tab
3 comments total.
0 reply
Mohawkriverman 1,972 Jun 12, 2013 04:58 AM

Since I posted this, I have tabbed out the hook riff that repeats through the song:

e|-6------------------------6-----------------------|
B|---6-----------6-6---8-6----6---------------------|
G|-------------7-----7----------------8-8-8-8-7-5---|
D|-----8---5-8------------------8---5-------------8-|
A|-------8------------------------8-----------------|
E|--------------------------------------------------|

Enjoy! \
Bill

0 reply
cuteredangel 1,420 Aug 28, 2013 05:17 PM

Thanks for posting it in the same key as the original song! The 1st UG tab of this song featured the same chord pattern as yours, except if would have been a Gm7 in this key (which sounds good too).

0 reply
Mohawkriverman 1,972 Aug 28, 2013 07:06 PM

Hey cuterdangle, thanks for the kind words. I do believe that most times the original key is best, without a capo, but there are exceptions. please check out my blog on this issue: http://profile.ultimate-guitar.com/Mohawkriverman/blog/120479/

guest
You may want to rate the tab now too:
select rating
Wanna post a correction for this tab? Suggest correction