Oops, an error
Loading. Please wait.

Sign tab

version 2
version 2

Whole song

Interactive

by Flow
4,894 views 3 this week
no commentswrite comment
1 2 3 4 5
3 more votes to show rating
add to favorites
×
Save as Personal and add changes to this tab that will be seen only by you. Learn more ›
×
You can save this tab as Personal to edit and correct it or add notes. All changes will be seen only by you. Learn more »
launch autoscroll
font size
0
reset
how to read this tab
guitar tuner
edit
Autoscroll
slow
fast
+/-
esc
set tempo
stop
Difficulty
Intro

Lead Guitar(Distorted)
      D         A        Bm        F#m        G         A       Bm
e|-----2---|-----0---|-----2---|---------|---------|---------|--7~--|
B|-------3-|-------2-|-------3-|-----2---|-----3---|-----5---|--7~--|
G|---2-----|---------|---------|-------2-|-------4-|-------6-|--7~--|
D|-0-------|---2-----|---4-----|---------|---------|---------|--9~--|
A|---------|-0-------|-2-------|---4-----|---5-----|---7-----|--9~--|
E|---------|---------|---------|-2-------|-3-------|-5-------|--7~--|

*Pick Slide*

Rhythm Guitar(Distorted)
   G5              A5              B5              D5             
e|---------------|---------------|---------------|----------------|
B|---------------|---------------|---------------|----------------|
G|---------------|---------------|---------------|-7-7-7----------|
D|-5~------------|-7~------------|-9~------------|-7-7-7----------|
A|-5~------------|-7~------------|-9~------------|-5-5-5----------|
E|-3~------------|-5~------------|-7~------------|----------------|

   G5              A5              B5             A5
e|---------------|---------------|-------------|-----|
B|---------------|---------------|-------------|-----|
G|---------------|---------------|-------------|-----|
D|-5~------------|-7~------------|-9~----------|--7~-|
A|-5~------------|-7~------------|-9~----------|--7~-|
E|-3~------------|-5~------------|-7~----------|--5~-|

Verse I

Rhythm Guitar(Distorted)
   D5                                      A5                               B5   A5   G5
e|---------------------------------------|--------------------------------|----|----|----|
B|---------------------------------------|--------------------------------|----|----|----|
G|-7-7*-7*-7*-7*-7*-7-7*-7*-7-7*-7*-7*-7-|--------------------------------|----|----|----|
D|-7-7*-7*-7*-7*-7*-7-7*-7*-7-7*-7*-7*-7-|-7-7*-7*-7*-7*-7*-7-7*-7*-7-5-7-|-9~-|-7~-|-5~-|
A|-5-5*-5*-5*-5*-5*-5-5*-5*-5-5*-5*-5*-5-|-7-7*-7*-7*-7*-7*-7-7*-7*-7-5-7-|-9~-|-7~-|-5~-|
E|---------------------------------------|-5-5*-5*-5*-5*-5*-5-5*-5*-5-3-5-|-7~-|-5~-|-3~-|

   D5                                      A5                               B5   A5   G5   A5
e|---------------------------------------|--------------------------------|----|----|----|----|
B|---------------------------------------|--------------------------------|----|----|----|----|
G|-7-7*-7*-7*-7*-7*-7-7*-7*-7-7*-7*-7*-7-|--------------------------------|----|----|----|----|
D|-7-7*-7*-7*-7*-7*-7-7*-7*-7-7*-7*-7*-7-|-7-7*-7*-7*-7*-7*-7-7*-7*-7-5-7-|-9~-|-7~-|-5~-|-7~-|
A|-5-5*-5*-5*-5*-5*-5-5*-5*-5-5*-5*-5*-5-|-7-7*-7*-7*-7*-7*-7-7*-7*-7-5-7-|-9~-|-7~-|-5~-|-7~-|
E|---------------------------------------|-5-5*-5*-5*-5*-5*-5-5*-5*-5-3-5-|-7~-|-5~-|-3~-|-5~-|

Refrain I

Rhythm Guitar(Distorted)
   G5   A5  F#5   B5   E5                    G5                  A
e|----|----|----|----|---------------------|-------------------|-5-5-5-5-5-5-5-5-|
B|----|----|----|----|---------------------|-------------------|-5-5-5-5-5-5-5-5-|
G|----|----|----|----|---------------------|-------------------|-6-6-6-6-6-6-6-6-|
D|-5~-|-7~-|-4~-|-9~-|-2-2*-2*-2*-2*-2*-2*-|-5-5*-5*-5-5*-5*-5-|-7-7-7-7-7-7-7-7-|
A|-5~-|-7~-|-4~-|-9~-|-2-2*-2*-2*-2*-2*-2*-|-5-5*-5*-5-5*-5*-5-|-7-7-7-7-7-7-7-7-|
E|-3~-|-5~-|-2~-|-7~-|-0-0*-0*-0*-0*-0*-0*-|-3-3*-3*-3-3*-3*-3-|-5-5-5-5-5-5-5-5-|

Chorus I

Rhythm Guitar(Distorted)
   D5   A5   B5  F#5   G5   D5   A5         D5   A5   B5  F#5   G5   A5   B5   A5   G5   B5
e|----|----|----|----|----|----|----------|----|----|----|----|----|----|----|----|----|----|
B|----|----|----|----|----|----|----------|----|----|----|----|----|----|----|----|----|----|
G|-7~-|----|----|----|----|-7~-|----6-7-9-|-7~-|----|----|----|----|----|----|----|----|----|
D|-7~-|-7~-|-9~-|-4~-|-5~-|-7~-|-7~-x-x-x-|-7~-|-7~-|-9~-|-4~-|-5~-|-7~-|-9~-|-7~-|-5~-|-7~-|
A|-5~-|-7~-|-9~-|-4~-|-5~-|-5~-|-7~-4-5-7-|-5~-|-7~-|-9~-|-4~-|-5~-|-7~-|-9~-|-7~-|-5~-|-7~-|
E|----|-5~-|-7~-|-2~-|-3~-|----|-5~-------|----|-5~-|-7~-|-2~-|-3~-|-5~-|-7~-|-5~-|-3~-|-5~-|

Instrumental

Rhythm Guitar(Distorted)
   G5              A5              B5             A5
e|---------------|---------------|-------------|-----|
B|---------------|---------------|-------------|-----|
G|---------------|---------------|-------------|-----|
D|-5~------------|-7~------------|-9~----------|--7~-|
A|-5~------------|-7~------------|-9~----------|--7~-|
E|-3~------------|-5~------------|-7~----------|--5~-|

Verse II

Rhythm Guitar(Distorted)
   D5                                      A5                               B5   A5   G5   A5
e|---------------------------------------|--------------------------------|----|----|----|----|
B|---------------------------------------|--------------------------------|----|----|----|----|
G|-7-7*-7*-7*-7*-7*-7-7*-7*-7-7*-7*-7*-7-|--------------------------------|----|----|----|----|
D|-7-7*-7*-7*-7*-7*-7-7*-7*-7-7*-7*-7*-7-|-7-7*-7*-7*-7*-7*-7-7*-7*-7-5-7-|-9~-|-7~-|-5~-|-7~-|
A|-5-5*-5*-5*-5*-5*-5-5*-5*-5-5*-5*-5*-5-|-7-7*-7*-7*-7*-7*-7-7*-7*-7-5-7-|-9~-|-7~-|-5~-|-7~-|
E|---------------------------------------|-5-5*-5*-5*-5*-5*-5-5*-5*-5-3-5-|-7~-|-5~-|-3~-|-5~-|

Refrain II

Rhythm Guitar(Distorted)
   G5   A5  F#5   B5   E5                    G5                  A
e|----|----|----|----|---------------------|-------------------|-5-5-5-5-5-5-5-5-|
B|----|----|----|----|---------------------|-------------------|-5-5-5-5-5-5-5-5-|
G|----|----|----|----|---------------------|-------------------|-6-6-6-6-6-6-6-6-|
D|-5~-|-7~-|-4~-|-9~-|-2-2*-2*-2*-2*-2*-2*-|-5-5*-5*-5-5*-5*-5-|-7-7-7-7-7-7-7-7-|
A|-5~-|-7~-|-4~-|-9~-|-2-2*-2*-2*-2*-2*-2*-|-5-5*-5*-5-5*-5*-5-|-7-7-7-7-7-7-7-7-|
E|-3~-|-5~-|-2~-|-7~-|-0-0*-0*-0*-0*-0*-0*-|-3-3*-3*-3-3*-3*-3-|-5-5-5-5-5-5-5-5-|

Chorus II

Rhythm Guitar(Distorted)
   D5   A5   B5  F#5   G5   D5   A5         D5   A5   B5  F#5   G5   A5   B5   A5   G5   B5
e|----|----|----|----|----|----|----------|----|----|----|----|----|----|----|----|----|----|
B|----|----|----|----|----|----|----------|----|----|----|----|----|----|----|----|----|----|
G|-7~-|----|----|----|----|-7~-|----6-7-9-|-7~-|----|----|----|----|----|----|----|----|----|
D|-7~-|-7~-|-9~-|-4~-|-5~-|-7~-|-7~-x-x-x-|-7~-|-7~-|-9~-|-4~-|-5~-|-7~-|-9~-|-7~-|-5~-|-7~-|
A|-5~-|-7~-|-9~-|-4~-|-5~-|-5~-|-7~-4-5-7-|-5~-|-7~-|-9~-|-4~-|-5~-|-7~-|-9~-|-7~-|-5~-|-7~-|
E|----|-5~-|-7~-|-2~-|-3~-|----|-5~-------|----|-5~-|-7~-|-2~-|-3~-|-5~-|-7~-|-5~-|-3~-|-5~-|

Guitar Solo

Acoustic Guitar

e|--------------------------------------------------------|
B|-10-10-10-8-7-8-7------10--------------7-8-7-8/10-8-7---|
G|------------------7-/9----9-\7-----7-9----------------7-|
D|-------------------------------7/9----------------------|
A|--------------------------------------------------------|
E|--------------------------------------------------------|

e|--------10-----10--/12-12-12-9------9--10-10-------9--10-10----14-14-14----15-15-|
B|-/10-10-10--10-10------------10--10-10-12-12-10-10-10-12-12/14-14-14-14/15-15-15-|
G|---------------------------------------------------------------------------------|
D|---------------------------------------------------------------------------------|
A|---------------------------------------------------------------------------------|
E|---------------------------------------------------------------------------------|

Rhythm Guitar(Distorted)

e|---------------|---------------|---------------|---------------|
B|---------------|---------------|---------------|---------------|
G|---------------|---------------|---------------|-7*-7*-7*-7*-7-|
D|-5*-5*-5*-5*-5-|-7*-7*-7*-7*-7-|-9*-9*-9*-9*-9-|-7*-7*-7*-7*-7-|
A|-5*-5*-5*-5*-5-|-7*-7*-7*-7*-7-|-9*-9*-9*-9*-9-|-5*-5*-5*-5*-5-|
E|-3*-3*-3*-3*-3-|-5*-5*-5*-5*-5-|-7*-7*-7*-7*-7-|---------------|

e|---------------|---------------|---------------|---------------|
B|---------------|---------------|---------------|---------------|
G|---------------|---------------|---------------|-7*-7*-7*-7*-7-|
D|-5*-5*-5*-5*-5-|-7*-7*-7*-7*-7-|-9*-9*-9*-9*-9-|-7*-7*-7*-7*-7-|
A|-5*-5*-5*-5*-5-|-7*-7*-7*-7*-7-|-9*-9*-9*-9*-9-|-5*-5*-5*-5*-5-|
E|-3*-3*-3*-3*-3-|-5*-5*-5*-5*-5-|-7*-7*-7*-7*-7-|---------------|

Refrain III

Rhythm Guitar(Distorted)
   G5   A5  F#5   B5   E5                    G5                  A
e|----|----|----|----|---------------------|-------------------|-5-5-5-5-5-5-5-5-|
B|----|----|----|----|---------------------|-------------------|-5-5-5-5-5-5-5-5-|
G|----|----|----|----|---------------------|-------------------|-6-6-6-6-6-6-6-6-|
D|-5~-|-7~-|-4~-|-9~-|-2-2*-2*-2*-2*-2*-2*-|-5-5*-5*-5-5*-5*-5-|-7-7-7-7-7-7-7-7-|
A|-5~-|-7~-|-4~-|-9~-|-2-2*-2*-2*-2*-2*-2*-|-5-5*-5*-5-5*-5*-5-|-7-7-7-7-7-7-7-7-|
E|-3~-|-5~-|-2~-|-7~-|-0-0*-0*-0*-0*-0*-0*-|-3-3*-3*-3-3*-3*-3-|-5-5-5-5-5-5-5-5-|

Bridge

Rhythm Guitar(Distorted)

e|-----------------------------|---------------------|---------------------|---------------------|
B|-----------------------------|---------------------|---------------------|---------------------|
G|-----------------------------|---------------------|---------------------|---------------------|
D|-7-6-7-8-9-9*-9*-9*-9*-9*-9*-|-7-7*-7*-7*-7*-7*-7*-|-5-5*-5*-5*-5*-5*-5*-|-4-4*-4*-4*-4*-4*-4*-|
A|-7-6-7-8-9-9*-9*-9*-9*-9*-9*-|-7-7*-7*-7*-7*-7*-7*-|-5-5*-5*-5*-5*-5*-5*-|-4-4*-4*-4*-4*-4*-4*-|
E|-5-4-5-6-7-7*-7*-7*-7*-7*-7*-|-5-5*-5*-5*-5*-5*-5*-|-3-3*-3*-3*-3*-3*-3*-|-2-2*-2*-2*-2*-2*-2*-|

e|---------------------|---------------------|-----------------|
B|---------------------|---------------------|-----------------|
G|---------------------|---------------------|-----------------|
D|-5-5*-5*-5*-5*-5*-5*-|-7-7*-7*-7*-7*-7*-7*-|-9-9-9-9-9-9-9-9-|
A|-5-5*-5*-5*-5*-5*-5*-|-7-7*-7*-7*-7*-7*-7*-|-9-9-9-9-9-9-9-9-|
E|-3-3*-3*-3*-3*-3*-3*-|-5-5*-5*-5*-5*-5*-5*-|-7-7-7-7-7-7-7-7-|

Chorus III

Rhythm Guitar(Distorted)
   D5   A5   B5  F#5   G5   D5   A5
e|----|----|----|----|----|----|----------|
B|----|----|----|----|----|----|----------|
G|-7~-|----|----|----|----|-7~-|----6-7-9-|
D|-7~-|-7~-|-9~-|-4~-|-5~-|-7~-|-7~-x-x-x-|
A|-5~-|-7~-|-9~-|-4~-|-5~-|-5~-|-7~-4-5-7-|
E|----|-5~-|-7~-|-2~-|-3~-|----|-5~-------|

   D5   A5   B5  F#5   G5   A5   B5   A5   G5   B5   B5   A5   G5   A5
e|----|----|----|----|----|----|----|----|----|----|----|----|----|----|
B|----|----|----|----|----|----|----|----|----|----|----|----|----|----|
G|-7~-|----|----|----|----|----|----|----|----|----|----|----|----|----|
D|-7~-|-7~-|-9~-|-4~-|-5~-|-7~-|-9~-|-7~-|-5~-|-7~-|-9~-|-7~-|-5~-|-7~-|
A|-5~-|-7~-|-9~-|-4~-|-5~-|-7~-|-9~-|-7~-|-5~-|-7~-|-9~-|-7~-|-5~-|-7~-|
E|----|-5~-|-7~-|-2~-|-3~-|-5~-|-7~-|-5~-|-3~-|-5~-|-7~-|-5~-|-3~-|-5~-|

Outro

Rhythm Guitar(Distorted)
   G5              A5              B5              D5             
e|---------------|---------------|---------------|----------------|
B|---------------|---------------|---------------|----------------|
G|---------------|---------------|---------------|-7-7-7----------|
D|-5~------------|-7~------------|-9~------------|-7-7-7----------|
A|-5~------------|-7~------------|-9~------------|-5-5-5----------|
E|-3~------------|-5~------------|-7~------------|----------------|

   G5              A5              B5             A5
e|---------------|---------------|---------------|-----|
B|---------------|---------------|---------------|-----|
G|---------------|---------------|---------------|--7~-|
D|-5~------------|-7~------------|-9~------------|--7~-|
A|-5~------------|-7~------------|-9~------------|--5~-|
E|-3~------------|-5~------------|-7~------------|-----|

            
            
Suggest correction
Creating personal tab
Creating personal tab
You can edit any tab online and save it as your Personal.

You can edit, replace or remove any tab part or add personal notes – all changes will be seen only by you.

Personal tabs can be accessed anytime from any device, even offline.
Learn more »
Give kudos to tab author, rate the tab!
1 2 3 4 5
comments
print report bad tab
guest
Wanna post a correction for this tab? Suggest correction