Oops, an error
Loading. Please wait.

Dance Of The Pseudo Nymph bass

3,207 views 6 this week
no commentswrite comment
1 2 3 4 5
1 last vote to show rating
add to favorites
×
Save as Personal and add changes to this tab that will be seen only by you. Learn more ›
×
You can save this tab as Personal to edit and correct it or add notes. All changes will be seen only by you. Learn more »
launch autoscroll
font size
0
reset
guitar tuner
edit
Autoscroll
slow
fast
+/-
esc
set tempo
stop
Author
Intro
G-11


Main Riff
G-------6------7-------9-------|
D------4------5-------7-7------|
A-0---2---2--3--3----5---------|
E--0---------------00-----0-0--|

G-11-11-11--11-11-11-11--11--11--11----11-|
  |--3---|  |---3--|

During the main riff a clean bass overlays this
G-12-11-7-6-5-----|
D------------5----|
A-------------3-5-|
E-----------------|

Solo Section (leads in from the overlay)
G-------------------------------|
D----------0----------------4-0-|
A---------------7h9-5-----------|
E-0-2-3h5-7--5h7-----5-7-3-0----|

1:03
G----------------------------|
D---9-----------4---2--4-0---|
A--7--10-7h8-2---5---2-----2-|
E-0--8--0-----2-------------0| 

G-12-11-7-6-5-----|
D------------5----|
A-------------3-5-|
E-----------------|

1:09
G----------------------------|
D---9-----------4---2--4-0---|
A--7--10-7h8-2---5---2-----2-|
E-0--8--0-----2-------------0|


1:23
G--------------|
D---------4-0--|
A------0-2-----|
E-0-2-3------0-|

Outro
G---|
D-2-|
A--0|
E---|

I will try and tab the rest of the solo section later, it's hard to hear and really fast

Listen to the song for timings and structure, it should be quite clear
Tabbed by Gilles Casey

            
            
Suggest correction
Creating personal tab
Creating personal tab
You can edit any tab online and save it as your Personal.

You can edit, replace or remove any tab part or add personal notes – all changes will be seen only by you.

Personal tabs can be accessed anytime from any device, even offline.
Learn more »
Give kudos to tab author, rate the tab!
1 2 3 4 5
comments
print report bad tab
guest
You may want to rate the tab now too:
select rating
Wanna post a correction for this tab? Suggest correction