Oops, an error
Loading. Please wait.

All Around Me tab

version 6
version 6

Whole song

by Flyleaf
829 views 24 this week
no commentswrite comment
1 2 3 4 5
3 more votes to show rating
add to favorites
×
Save as Personal and add changes to this tab that will be seen only by you. Learn more ›
×
You can save this tab as Personal to edit and correct it or add notes. All changes will be seen only by you. Learn more »
launch autoscroll
font size
0
reset
how to read this tab
guitar tuner
edit
Autoscroll
slow
fast
+/-
esc
set tempo
stop
About this tab version
The tab provides riffs for the intro and refrain/solo. All of which are lacking for the acoustic version. Was this info helpful? Yes No
All Around me Acoustic
From: Flyleaf(2007 Re-Issue)
Acoustic Version: 
https://www.youtube.com/watch?v=K5RthJ-rHu8&index=13&list=PLngC3FtCQADQ3e4Oy1QZdw9qIC0NVMOXg

Feel free to leave corrections or suggestions: This is my first tab, and I did my best to keep it clean
and correct, I'm no music theory wizard, forgive me if I make some mistakes.

Drop D 
Capo: 2nd Fret


[Verse]

Guitar Chords: Em G Bm

e|--------------------------|---------------------------|
B|--------------------------|---------------------------|
G|----------9----------9----|--------9------------------|
D|--------7---11------------|------7---11---------------| X2
A|------9-----------9-------|----9------------12-11-9---|
D|--------------------------|---------------------------|

e|--------------------------|---------------------------|--------------------------|
B|--------------------------|---------------------------|--------------------------|
G|----------9----------9----|--------9---------9--------|----------9---------------|
D|--------7----11--------11-|------7---11----------11---|--------7----11-----------|
A|------9-----------9-------|----9----------9-----------|------9-----------12-11-9-|
D|--------------------------|---------------------------|--------------------------|


[Bridge]

Guitar Chord: D
Pick from the "G String" down to "e" and back up to "G" repeatedly.

e|------------------|-----------------|----------------------------|
B|------------------|-----------------|----------------------------|
G|------------------|-----------------|----------------------------|
D|------------------|-----------------|----------------------------|
A|---11--11--12--7--|--11--11--12--7--|--11--11--12--14------------|
D|------------------|-----------------|----------------------------|


[Chorus]

Guitar Chords: Em G Bm D

e|------------------------------------------------|-----------------------------------------|
B|------------------------------------------------|-----------------------------------------|
G|-14-14-14-14--13-13-13-13--11-11-11-11--9-9-9-9-|-4-4-4-4--9-9-9-9--2-2-2-2--0-0-0-0------|
D|------------------------------------------------|-----------------------------------------|
A|------------------------------------------------|-----------------------------------------|
D|------------------------------------------------|-----------------------------------------|

e|------------------------------------------------|------------------------------------------------|
B|------------------------------------------------|------------------------------------------------|
G|-14-14-14-14--13-13-13-13--11-11-11-11--9-9-9-9-|-4-4-4-4--9-9-9-9--11-11-11-11--13-13-13-13--14~|
D|------------------------------------------------|------------------------------------------------|
A|------------------------------------------------|------------------------------------------------|
D|------------------------------------------------|------------------------------------------------|

Repeat: Verse, Bridge and Chorus


[Refrain]

Guitar Chords: Em G Bm 

e|-------------------------|--------------------------------------------------|
B|-------------------------|--------------------------------------------------|
G|-------------------------|--16-16-16-16--14-14--16-16-16-16--14-14---11~----|
D|--19-18-16-16--18-19-16--|--------------------------------------------------|
A|--17-16-16-14--16-17-14--|--------------------------------------------------|
D|-------------------------|--------------------------------------------------|

e|---------|-----------------------------------|
B|---------|-----------------------------------|
G|--9h11---|-----9h11--11/13---14/16-16 16 16~-|
D|---------|-----------------------------------|
A|---------|-9---------------------------------|
D|---------|-----------------------------------|

Repeat Chorus


[Bridge 2]

Guitar Chord: See below
e|---x-------------------------------|
B|--14-------------------------------|
G|---x---(xFor Duration of Bridge)---|
D|--16-------------------------------|
A|-----------------------------------|
D|-----------------------------------|

e|----------------------------------------------|
B|----------------------------------------------|
G|----------------------------------------------|
D|----------------------------------------------|
A|-9-9-9-9--12-12-12-12--5-5-5-5-5-5------------|
D|----------------------------------------------|

Repeat Chorus

Fin

************************************

| h   Hammer-on
| p   Pull-off
| ~   Vibrato

************************************


            
            
Suggest correction
Creating personal tab
Creating personal tab
You can edit any tab online and save it as your Personal.

You can edit, replace or remove any tab part or add personal notes – all changes will be seen only by you.

Personal tabs can be accessed anytime from any device, even offline.
Learn more »
Give kudos to tab author, rate the tab!
1 2 3 4 5
comments
print report bad tab
guest
You may want to rate the tab now too:
select rating
Wanna post a correction for this tab? Suggest correction