Oops, an error
Loading. Please wait.

Call You Out tab

version 1
version 1

Whole song

Interactive

by Flyleaf
4,579 views 6 this week
no commentswrite comment
1 2 3 4 5
x 4
add to favorites
×
Save as Personal and add changes to this tab that will be seen only by you. Learn more ›
×
You can save this tab as Personal to edit and correct it or add notes. All changes will be seen only by you. Learn more »
launch autoscroll
font size
0
reset
how to read this tab
guitar tuner
edit
Autoscroll
slow
fast
+/-
esc
set tempo
stop
-------------------------------------------------------------------------------
                             Call You Out - Flyleaf
-------------------------------------------------------------------------------
Tabbed by: Patrick Thomas

Tuning: Drop D

Intro/Verse
e|--------------------------------------------------------------------|
B|------------10------------------------------------------------------|
G|------------12b-----------------------------------------------------|
D|-0--------0~-----(x9)-----------------------------------------------|
A|-0-(x9)---0~--------------------------------------------------------|
D|-0--------0~--------------------------------------------------------|

Chorus
e|--------------------------------------------------------------------|
B|--------------------------------------------------------------------|
G|--------------------------------------------------------------------|
D|-6--6--5--5--------3h5p3---3----------------------------------------| x3
A|-6--6--5--5--------------5---5-3/5----------------------------------|
D|-6--6--5--5--(0)----------------------------------------------------|

e|--------------------------------------------------------------------|
B|--------------------------------------------------------------------|
G|--------------------------------------------------------------------|
D|-6--6--5--5--------3h5p3---3---------0~-----------------------------|
A|-6--6--5--5--------------5---5-3/5---0~-----------------------------|
D|-6--6--5--5--(0)---------------------0~-----------------------------|

Last chorus end with open

Verse again

Then chorus

Bridge
e|--------------------------------------------------------------------|
B|--------------------------------------------------------------------|
G|--------------------------------------------------------------------|
D|--------------------------------------------------------------------|
A|-----------3--1-----------------------------------------------------|
D|--5--3--0--------3br0-----------------------------------------------|

Then back to verse/mixture of the bridge

Then chorus

Solo
e|-----------------------13-13-13-13------------------------------------|
B|--------------15-15-15------------------------20TP--------------------|
G|-12b14WV-(x2)----------------------12CV--22TP-------------------------|
D|----------------------------------------------------------------------|
A|----------------------------------------------------------------------|
D|----------------------------------------------------------------------|

Bend with wild vibrato on last note

~ - Hold note
b - Bend
br - Bend the release
h - Hammer on
p - Pull off
WV - Wild vibrato
CV - Circular vibrato

            
            
Suggest correction
Creating personal tab
Creating personal tab
You can edit any tab online and save it as your Personal.

You can edit, replace or remove any tab part or add personal notes – all changes will be seen only by you.

Personal tabs can be accessed anytime from any device, even offline.
Learn more »
comments
print report bad tab
guest
You may want to rate the tab now too:
select rating
Wanna post a correction for this tab? Suggest correction