Oops, an error
Loading. Please wait.
We have an official Fully Alive tab made by UG professional guitarists. Check out the tab »
×

Fully Alive tab

by Flyleaf
13,444 views 1 this week
3 commentsread comments
1 2 3 4 5
x 5
add to favorites
×
Save as Personal and add changes to this tab that will be seen only by you. Learn more ›
×
You can save this tab as Personal to edit and correct it or add notes. All changes will be seen only by you. Learn more »
launch autoscroll
font size
0
reset
how to read this tab
guitar tuner
edit
Autoscroll
slow
fast
+/-
esc
set tempo
stop
----------------------------------------------------------------------------
Fully Alive (Acoustic) - Flyleaf
----------------------------------------------------------------------------

Tabbed by: Elizabeth R.

This song is off of the 2007 release of the Flyleaf album. Listen to the song for correct timing. 
I have not done many tabs, so sorry if I made any mistakes. 
If you find any, please suggest corrections below. Hope you enjoy it =)

Tuning: Drop D


Intro: Palm mute
e|---------------------------|
B|---------------------------|
G|--------------------0---0--| 
D|----7-7-7-7-7-7-7-7-7-7-7--|{pm}
A|----5-5-5-5-5-5-5-5-5-5-5--|
E|---------------------------|
   PM--------------------->

Verse: Palm mute
e|-------------------------------|
B|-------------------------------|{pm}
G|-------------------------------|
D|--7-7-7-7-7-5-5-5-5-5-3-3-3-3--| 
A|--5-5-5-5-5-3-3-3-3-3-1-1-1-1--| 
E|-------------------------------|
  PM----------------------->
  Telling...

e|-------------------------------|
B|-------------------------------|{pm}
G|-------------------------------|
D|--7-7-7-7-7-5-5-5-5-5-3-3-3-3--| 
A|--5-5-5-5-5-3-3-3-3-3-1-1-1-1--| 
E|-------------------------------|
  PM--------------------->
  About...

e|-------------------------------|
B|-------------------------------|
G|-------------------------------|
D|--7-7-7-7-10-10-10-10-3-3-3-3--| {pm}
A|--5-5-5-5-8--8--8--8--1-1-1-1--|
E|-------------------------------|
  PM--------------------->
  Hammers...

e|-------------------------------|
B|-------------------------------| {pm}
G|-------------------------------|
D|--7-7-7-7-7-5-5-5-5-5-3-3-3-3--|
A|--5-5-5-5-5-3-3-3-3-3-1-1-1-1--|
E|-------------------------------|
   PM--------------------->
Two...

  Chorus:
e|---------------------------------|
B|---------------------------------|
G|--7-7-7-7-10-10-10-12-12-12-12-12| (x2)
D|--7-7-7-7-10-10-10-12-12-12-12-10|
A|--5-5-5-5-8--8 -8 -10-10-10-10-10|
E|---------------------------------|


Verse: Palm mute
e|-------------------------------|
B|-------------------------------|{pm}
G|-------------------------------|
D|--7-7-7-7-7-5-5-5-5-5-3-3-3-3--|
A|--5-5-5-5-5-3-3-3-3-3-1-1-1-1--|
E|-------------------------------|
  PM--------------------->
  All...

e|-------------------------------|
B|-------------------------------|{pm}
G|-------------------------------|
D|--7-7-7-7-7-5-5-5-5-5-3-3-3-3--|
A|--5-5-5-5-5-3-3-3-3-3-1-1-1-1--|
E|-------------------------------|
  PM--------------------->
  Im...

e|-------------------------------|
B|-------------------------------|
G|-------------------------------|
D|--7-7-7-7-10-10-10-10-3-3-3-3--| {pm}
A|--5-5-5-5-8--8--8--8--1-1-1-1--|
E|-------------------------------|
  PM--------------------->
  Shes...

e|-------------------------------|
B|-------------------------------| {pm}
G|-------------------------------|
D|--7-7-7-7-7-5-5-5-5-5-3-3-3-3--|
A|--5-5-5-5-5-3-3-3-3-3-1-1-1-1--|
E|-------------------------------|
   PM--------------------->
  Only...
 
 Chorus:
e|---------------------------------|
B|---------------------------------|
G|--7-7-7-7-10-10-10-12-12-12-12-12| (x2)
D|--7-7-7-7-10-10-10-12-12-12-12-10|
A|--5-5-5-5-8 -8 -8--10-10-10-10-10|
E|---------------------------------|
  
Bridge: 
e|--8---5---8---3-----------------|
B|--8---5---8---3-----------------|
G|--10--7---10--5-----------------| (x2)
D|--10--7---10--5-----------------|
A|--8---5---8---3-----------------|
E|--8---5---8---3-----------------|
  Here...

  Chorus:
e|---------------------------------|
B|---------------------------------|
G|--7-7-7-7-10-10-10-12-12-12-12-12| (x2)
D|--7-7-7-7-10-10-10-12-12-12-12-10|
A|--5-5-5-5-8 -8 -8--10-10-10-10-10|
E|---------------------------------|

   Repeat chorus

Outro: Palm mute
e|-------------|
B|-------------|
G|-------------| 
D|----7-7-7-7--| {pm}
A|----5-5-5-5--|
E|-------------|
  PM-------->

************************************

| /   slide up
| \   slide down
| h   hammer-on
| p   pull-off
| ~   vibrato
| +   harmonic
| x   Mute note
| PM  Palm mute
| b   Bend
| pb  Pre-bend
| br  Bend release
| pbr Pre-bend release
| brb Bend release bend

************************************


            
            
Suggest correction
Creating personal tab
Creating personal tab
You can edit any tab online and save it as your Personal.

You can edit, replace or remove any tab part or add personal notes – all changes will be seen only by you.

Personal tabs can be accessed anytime from any device, even offline.
Learn more »
comments
print report bad tab
3 comments total.
0 reply
joel(^^^) 10 Jun 06, 2010 04:09 PM

really good, one slight change at the very end though..

e|---------------------------------
B|---------------------------------
G|---------------------------------
D|--7-9-9-7-9-9-7-9-9-7-9-9-7-9-9-9
A|--5-5-5-5-5-5-5-5-5-5-5-5-5-5-5-5
E|---------------------------------

-2 reply
svenovich 10 Jul 24, 2011 12:35 PM

lol if tuning is dropped d, wouldn't the bottom E be a D xd?

0 reply
devon Rex 10 May 07, 2017 08:49 PM

Everything is great except the chorus and the outro.

Outro is not complete to its sound in he audio.

And chorus lacks the higher key tablature for the acoustic version performed by Flyleaf

guest
Wanna post a correction for this tab? Suggest correction