Oops, an error
Loading. Please wait.

So I Thought bass

version 2
version 2

Whole song

Interactive

by Flyleaf
3,589 views 3 this week
1 commentread comment
1 2 3 4 5
x 4
add to favorites
×
Save as Personal and add changes to this tab that will be seen only by you. Learn more ›
×
You can save this tab as Personal to edit and correct it or add notes. All changes will be seen only by you. Learn more »
launch autoscroll
font size
0
reset
guitar tuner
edit
Autoscroll
slow
fast
+/-
esc
set tempo
stop
Band: Flyleaf
Song: So I Thought
Album: Flyleaf
Tabbed by: choke383
Drop D Tuning: GDAD


0:16
G|------------7------------------------------------------|
D|---------4h5----------------------------------------5--|
A|---------------------2--------2-0-----------------5----|
D|0-----------------------------------------5------------|

G|------------7---------------------11-------------------|
D|---------4h5-----3h4------------------12------5--------|
A|---------------------2--------2/12----------5-----5----|
D|0---------------------------------------------------5--|


0:50   (No Bass, just fun)
G|-------------------------------------------|
D|9-------------9-7--------------------------|
A|----------------------------10-------------|
D|-------------------------------------------|


1:00
G|------------7---7-(\)--------------11h12p11------------|
D|---------4h5--55--------------------------12--------5--|
A|---------------------2--------2-0-----------------5----|
D|0--------------------------------------------5---------|

G|----------------------------------11-------------------|
D|-----------------3h4------------------12-------5-------|
A|---------------------2--------2/12-----------5-----5---|
D|0--------0-0-----------------------------------------5-|


1:34    (No Bass, just for fun)
G|-------------------------------------------|
D|9-------------9-7--------------------------|
A|----------------------------10-------------|
D|-------------------------------------------|x2


1:55
G|-----------------------------|
D|-----------------------------|
A|----------2-22-22------------|
D|0--000--0---------5-55-55----|x3

G|---------------------------------|
D|---------------------------------|
A|---------------------------------|
D|2-2-2-2-2-2-2-2-5-55-55-5-55-55--|


2:18
G|---------------------------------------------------------------------------------|
D|9-9-9-9-9-9-9-9-7-7-7-7-7-7-7-7--------------------------------------------------|
A|--------------------------------10-10-10-10-10-10-10-10-10-10-10-10-10-10-10-10--|
D|---------------------------------------------------------------------------------|

G|------------------------------------------------------------------------|
D|9-9-9-9-9-9-9-9-7-7-7-7-7-7-7-7-----------------------------------------|
A|--------------------------------10-10-10-10-10-10-10-10-10-10-10-10-10--|
D|------------------------------------------------------------------------|


2:40
G|-----------------------------|
D|-----------------------------|
A|----------2-22-22------------|
D|0--000--0---------5-55-55----|x3

G|---------------------------------|
D|---------------------------------|
A|---------------------------------|
D|2-2-2-2-2-2-2-2-5-55-55-5-55-55--|


3:01
G|-----------------------------|
D|-----------------------------|
A|----------2-22-22------------|
D|0--000--0---------5-55-55----|x3

G|---------------------------------|
D|---------------------------------|
A|---------------------------------|
D|2-2-2-2-2-2-2-2-5-55-55-5-55-55--|

G|-----------|
D|-----------|
A|-----------|
D|-0~~~~~~~--|


3:29
G|---------------------------------------------------------------------------------|
D|9-9-9-9-9-9-9-9-7-7-7-7-7-7-7-7--------------------------------------------------|
A|--------------------------------10-10-10-10-10-10-10-10-10-10-10-10-10-10-10-10--|
D|---------------------------------------------------------------------------------|x4

G|------------------------|
D|------------------------|
A|------------------------|
D|-0~~~~~~~~~~~~~~~~~~~~--|



Any comments, questions or jokes send to style444@hotmail.com

            
            
Suggest correction
Creating personal tab
Creating personal tab
You can edit any tab online and save it as your Personal.

You can edit, replace or remove any tab part or add personal notes – all changes will be seen only by you.

Personal tabs can be accessed anytime from any device, even offline.
Learn more »
comments
print report bad tab
1 comment total.
0 reply
timmyjock 213 Feb 08, 2009 06:01 PM

Awesome Man I can't find a single mistake

I tabbed this song out as well but I've done like a simple version for like beginners or to people who can't play the tricky stuff, I find it tricky n I've been playing 2 years (I practise a lot)

guest
You may want to rate the tab now too:
select rating
Wanna post a correction for this tab? Suggest correction