Oops, an error
Loading. Please wait.

Sorrow tab

version 2
version 2

Whole song

Interactive

by Flyleaf
17,701 views 1 this week
6 commentsread comments
1 2 3 4 5
x 7
add to favorites
×
Save as Personal and add changes to this tab that will be seen only by you. Learn more ›
×
You can save this tab as Personal to edit and correct it or add notes. All changes will be seen only by you. Learn more »
launch autoscroll
font size
0
reset
how to read this tab
guitar tuner
edit
Autoscroll
slow
fast
+/-
esc
set tempo
stop
**************************
SORROW ACOUSTIC by FLYLEAF
**************************

Tabbed by: silver_and_cold
Email: deranged_smiley_faces@hotmail.com
Tuning: Drop D

see any mistakes?? please comment.. thanks ^^
please rate

***updated the verse and some stuff..***


Intro
Guitar 1: 
e|--------------------------------------------------------------------------|
B|--------------------------------------------------------------------------|
G|--------------------------------------------------------------------------|
D|-10-12-0-3-5-8-x-x---10-12-0-3-5-8-x---10-12-0-3-5-8--10-12-0-3-5/-7-8----|
A|-10-12-0-3-5-8-x-x---10-12-0-3-5-8-x---10-12-0-3-5-8--10-12-0-3-5/-7-8----|
D|-10-12-0-3-5-8-x-x---10-12-0-3-5-8-x---10-12-0-3-5-8--10-12-0-3-5/-7-8----|


Verse:
e|------------------------------------------------------------------0~-----|
B|------------------------------------------------------------------3~-----|
G|------10-10---------------7----------------10-10-------------7----2~-----|
D|---------------10----------------10----------------10-------------0~-----|
A|-------------7----7--8-8----8--------------------7----7--8-8---8--0~-----|
D|--8-8--------------------------10---10\8-8------------------------0~-----|


Pre Chorus:
e|--------------------------------0~--0000------------------|
B|--------------------------------3~--3333--5555-5555-------|
G|--------------------------------2~--2222--5555-5555-------|
D|----------------------------88--0~--0000--3333-3333-------|
A|-555555-555555---888888-888888--0~--0000--3333-3333-------|
D|-555555-555555---888888-888888--0~--0000--3333-3333-------|
   ****** ******   ****** ****

e|---------------------------------------------------|
B|---------------------------------------------------|
G|------10-10---------------7--------------10~-------|
D|---------------10----------------10------10~-------|
A|-------------7----7--8-8----8-------------8~-------|
D|--8-8--------------------------10---10----8~-------|


CHORUS
e|-----0~-000-----------------|
B|-----3~-333--5~--555-5555---|
G|-----2~-222--5~--555-6555---| x2
D|-888-0~-000--3~--333-3333---|
A|-888-0~-000--3~--333-3333---|
D|-888-0~-000--3~--333-3333---|
                            

e|-----0~-000-------------------------------------0~--|
B|-----3~-333--5~--555----------------------------3~--|
G|-----2~-222--5~--555----------------------------2~--|
D|-888-0~-000--3~--333--7~-777---8~-888--777--0~--0~--|
A|-888-0~-000--3~--333--7~-777---8~-888--777--0~------|
D|-888-0~-000--3~--333--7~-777---8~-888--777--0~------|


Play Verse and Prechorus, then chorus


Bridge
e|----------------------------------------------|
B|----------------------------------------------|
G|----------------------------------------------|
D|----------------------------------------------|
A|-555555--777777--888888-888888----------------|
D|-555555--777777--888888-888888----------------|

e|----------------------------------------------|
B|----------------------------------------------|
G|----------------------------------------------|
D|----------------------------------------------|
A|-555555--777777--8-8-8------------------------|
D|-555555--777777--8-8-8------------------------|
               ..."halfway mine"

e|----------------------------------------------|
B|----------------------------------------------|
G|----------------------------------------------|
D|----------------------------------------------|
A|-555555--777777--888888-888888----------------|
D|-555555--777777--888888-888888----------------|



e|----------------------------------------------|
B|----------------------------------------------|
G|----------------------------------------------|
D|-333333-333333--10-10-10-10-10-10-10\---------|
A|-333333-333333--10-10-10-10-10-10-10\---------|
D|-333333-333333--10-10-10-10-10-10-10\---------|


Play Chorus


e|-------------------------------------------------------------------------------|
B|-------------------------------------------------------------------------------|
G|-------------------------------------------------------------------------------|
D|-10-12-0-3-5-8-x-x---10-12-0-3-5-8-x---10-12-0-3-5-8--10-12-0-3-5/-7-8--x-x-x--|
A|-10-12-0-3-5-8-x-x---10-12-0-3-5-8-x---10-12-0-3-5-8--10-12-0-3-5/-7-8--x-x-x--|
D|-10-12-0-3-5-8-x-x---10-12-0-3-5-8-x---10-12-0-3-5-8--10-12-0-3-5/-7-8--x-x-x--|
                                                                     ...."joy will come"


e|--------------------------------------|
B|--------------------------------------|
G|--------------------------------------|
D|-10-12-0-3-5-8---10-12-0-3-5-8--------|
A|-10-12-0-3-5-8---10-12-0-3-5-8--------|
D|-10-12-0-3-5-8---10-12-0-3-5-8--------|

            
            
Suggest correction
Creating personal tab
Creating personal tab
You can edit any tab online and save it as your Personal.

You can edit, replace or remove any tab part or add personal notes – all changes will be seen only by you.

Personal tabs can be accessed anytime from any device, even offline.
Learn more »
comments
print report bad tab
6 comments total. Showing first comments.
0 reply
riot! 31 May 31, 2008 01:05 PM

very good
except the verse is wrong

0 reply
Xb4mvluvrX 167 Jul 13, 2008 08:19 AM

yeah the verse seems a little off but its a good tab!!!

0 reply
sk8ermorgan 31 Aug 28, 2008 08:42 AM

can u fix it plz =]

guest
You may want to rate the tab now too:
select rating
Wanna post a correction for this tab? Suggest correction