Oops, an error
Loading. Please wait.

Boy Meets Girl bass

version 2
version 2

Whole song

805 views 1 this week
2 commentsread comments
1 2 3 4 5
1 last vote to show rating
add to favorites
×
Save as Personal and add changes to this tab that will be seen only by you. Learn more ›
×
You can save this tab as Personal to edit and correct it or add notes. All changes will be seen only by you. Learn more »
launch autoscroll
font size
0
reset
guitar tuner
edit
Autoscroll
slow
fast
+/-
esc
set tempo
stop
Author
-------------------------------------------------------------------------------
			 Boy Meets Girl (And Vice Versa) - FM Static
-------------------------------------------------------------------------------

Tuning: Standard (or drop D if you want it lower)

Intro/Verse
G|----------------------------------| 
D|--0-0---3-5-5---3-5-5---3-5-7-3~--| 
A|----------------------------------| 
E|----------------------------------| 

G|----------------------------------| 
D|--0-0---3-5-5---3-5-5---3-7-5-0~--| 
A|----------------------------------| 
E|----------------------------------| 

G|----------------------------------| 
D|--0-0---3-5-5---3-5-5---3-5-7-3~--| 
A|----------------------------------| 
E|----------------------------------| 

G|-----------------------|
D|--0-0---3-5-5---3-5-5--|
A|-----------------------|
E|-----------------------|


Pre-Chorus
G|----------------------------------| 
D|--0-0---3-5-5---3-5-5---3-5-7-3~--| 
A|----------------------------------| 
E|----------------------------------| 

G|----------------------------------| 
D|--0-0---3-5-5---3-5-5---3-7-5-0~--| 
A|----------------------------------| 
E|----------------------------------| 

G|----------------------------------| 
D|--0-0---3-5-5---3-5-5---3-5-7-3~--| 
A|----------------------------------| 
E|----------------------------------| 

G|-----------------------|
D|--0-0---3-5-5---3-5-5--|
A|-----------------------|
E|-----------------------|

Chorus x2
G|--------------------------------------------| |----------5------|
D|--0--00--0--00--3--33--3--33--5--55--5--55--| |--0-3-5-7---753--| x2
A|--------------------------------------------| |-----------------|
E|--------------------------------------------| |-----------------|

Pre-Verse
G|--------------------------------------------------------------------|
D|--0-0---3-5-5---3-5-5---3-5-5-3~---0-0---3-5-5---3-5-5---3-5/7-5-3--|
A|--------------------------------------------------------------------|
E|--------------------------------------------------------------------|

Verse
G|----------------------------------| 
D|--0-0---3-5-5---3-5-5---3-5-7-3~--| 
A|----------------------------------| 
E|----------------------------------| 

G|----------------------------------| 
D|--0-0---3-5-5---3-5-5---3-7-5-0~--| 
A|----------------------------------| 
E|----------------------------------| 

G|----------------------------------| 
D|--0-0---3-5-5---3-5-5---3-5-7-3~--| 
A|----------------------------------| 
E|----------------------------------| 

G|-----------------------|
D|--0-0---3-5-5---3-5-5--|
A|-----------------------|
E|-----------------------|

Pre-Chorus
G|----------------------------------| 
D|--0-0---3-5-5---3-5-5---3-5-7-3~--| 
A|----------------------------------| 
E|----------------------------------| 

G|----------------------------------| 
D|--0-0---3-5-5---3-5-5---3-7-5-0~--| 
A|----------------------------------| 
E|----------------------------------| 

G|----------------------------------| 
D|--0-0---3-5-5---3-5-5---3-5-7-3~--| 
A|----------------------------------| 
E|----------------------------------| 

G|-----------------------|
D|--0-0---3-5-5---3-5-5--|
A|-----------------------|
E|-----------------------|

Chorus x2
G|--------------------------------------------| |----------5------|
D|--0--00--0--00--3--33--3--33--5--55--5--55--| |--0-3-5-7---753--| x2
A|--------------------------------------------| |-----------------|
E|--------------------------------------------| |-----------------|

Bridge
G|-------------------------------------|
D|---------------3--35--35--35--7-5-3--| x2
A|--5--35--35--5-----------------------|
E|-------------------------------------|

Chorus x2
G|--------------------------------------------| |----------5------|    |------|
D|--0--00--0--00--3--33--3--33--5--55--5--55--| |--0-3-5-7---753--| x2 |------|
A|--------------------------------------------| |-----------------|    |--5\--|
E|--------------------------------------------| |-----------------|    |------|

Great song, hope you enjoy! Some people seem to think he plays a five string but I dont 
if Trevor gotten a new bassist since the definitely maybe music vid!


| /  slide up
| \  slide down
| h  hammer-on
| p  pull-off
| ~  let note ring
| +  harmonic
| x  Mute note
===============================================================================

            
            
Suggest correction
Creating personal tab
Creating personal tab
You can edit any tab online and save it as your Personal.

You can edit, replace or remove any tab part or add personal notes – all changes will be seen only by you.

Personal tabs can be accessed anytime from any device, even offline.
Learn more »
Give kudos to tab author, rate the tab!
1 2 3 4 5
comments
print report bad tab
2 comments total.
+1 reply
leftyluke7 201 Dec 01, 2009 11:34 AM

I think the verse should be
G|------------------------|
D|------------------------|
A|------------------------|
D|---00--355--355--3573---|

G|------------------------|
D|------------------------|
A|------------------------|
D|---00--355--355--3750---|

G|------------------------|
D|------------------------|
A|------------------------|
D|---00--355--355--3573---|

G|------------------------|
D|------------------------|
A|------------------------|
D|---00--355--355---------|

Notice the endings of each line.

I think the Pre-verse should be the same as the first half of the verse except with slides.

-1 reply
basistah 31 Jan 20, 2010 11:22 PM

its not accurate, try the other one.. ^

guest
You may want to rate the tab now too:
select rating
Wanna post a correction for this tab? Suggest correction