Oops, an error
Loading. Please wait.

Christmas Shoes tab

version 1
version 1

Whole song

11,658 views 1 this week
2 commentsread comments
1 2 3 4 5
x 5
add to favorites
×
Save as Personal and add changes to this tab that will be seen only by you. Learn more ›
×
You can save this tab as Personal to edit and correct it or add notes. All changes will be seen only by you. Learn more »
launch autoscroll
font size
0
reset
how to read this tab
guitar tuner
edit
Autoscroll
slow
fast
+/-
esc
set tempo
stop
[Verse 1]

"It was almost Christmas time"
E|---------|----------3-|------------|--------------|
B|---------|-------3----|------------|--------------|
G|-----0---|-----2------|------5-----|-----7---5----|
D|-------0-|--0---------|----5---5---|---7---7------|
A|---5-----|------------|--3---------|-5------------|
D|-5-------|------------|------------|--------------|

"Standing right in front of me"
E|---------|----------3-|------------|--------------|
B|---------|-------3----|------------|--------------|
G|-----0---|-----2------|------5-----|-----7-----7--|
D|-------0-|--0---------|----5---5---|---7---7---7--|
A|---5-----|------------|--3---------|-5---------5--|
D|-5-------|------------|------------|--------------|

[Pre-Chorus]

"And his clothes were worn and old"
E|-------------------|-------------------|---------------------------|---------------------------|
B|-------------------|-------------------|---------------------------|---------------------------|
G|-------------------|-------------------|---------------------------|---------------------------|
D|-------------------|-------------------|---------------------------|---------------------------|
A|-------------------|-------------------|--10-10-10-10-12-12-12-12--|--10-10-10-10-12-12-12-12--|
D|-5-5-5-5-4-4-4-4---|-2-2-2-2-0-0-0-0---|---------------------------|---------------------------|


[Chorus]

"Sir, I wanna buy these shoes"
E|-------------------|-------------------|------------------|------------------|
B|-------------------|-------------------|------------------|------------------|
G|-------------------|-9-9-9-9-9-9-9-9---|------------------|------------------|
D|-7-7-7-7-7-7-7-7---|-9-9-9-9-9-9-9-9---|-4-4-4-4-4-4-4-4--|-2-2-2-2-2-2-2-2--|
A|-7-7-7-7-7-7-7-7---|-7-7-7-7-7-7-7-7---|-4-4-4-4-4-4-4-4--|-2-2-2-2-2-2-2-2--|
D|-7-7-7-7-7-7-7-7---|-------------------|-4-4-4-4-4-4-4-4--|-2-2-2-2-2-2-2-2--|

"It's Christmas eve"
E|-----------------|-------------------|-------------------|------------------|
B|-----------------|-------------------|-------------------|------------------|
G|-----------------|-------------------|-------------------|------------------|
D|-0-0-0-0-0-0-0-0-|--2-2-2-2-2-2-2-2--|-7-7-7-7-7-7-7-7---|-2-2-2-2-2-2-2-2--|
A|-0-0-0-0-0-0-0-0-|--2-2-2-2-2-2-2-2--|-7-7-7-7-7-7-7-7---|-2-2-2-2-2-2-2-2--|
D|-0-0-0-0-0-0-0-0-|--2-2-2-2-2-2-2-2--|-7-7-7-7-7-7-7-7---|-2-2-2-2-2-2-2-2--|

"Could you hurry sir"
E|-------------------|-------------------|------------------|------------------|
B|-------------------|-------------------|------------------|------------------|
G|-------------------|-9-9-9-9-9-9-9-9---|------------------|------------------|
D|-7-7-7-7-7-7-7-7---|-9-9-9-9-9-9-9-9---|-4-4-4-4-4-4-4-4--|-2-2-2-2-2-2-2-2--|
A|-7-7-7-7-7-7-7-7---|-7-7-7-7-7-7-7-7---|-4-4-4-4-4-4-4-4--|-2-2-2-2-2-2-2-2--|
D|-7-7-7-7-7-7-7-7---|-------------------|-4-4-4-4-4-4-4-4--|-2-2-2-2-2-2-2-2--|

"You see, she's been sick"
E|-----------------|-------------------|-----------------|-------------------|---|---|
B|-----------------|-------------------|-----------------|-------------------|---|---|
G|-----------------|-------------------|-----------------|-------------------|---|---|
D|-0-0-0-0-0-0-0-0-|--2-2-2-2-2-2-2-2--|-0-0-0-0-0-0-0-0-|--2-2-2-2-2-2-2-2--|-0-|-2-|
A|-0-0-0-0-0-0-0-0-|--2-2-2-2-2-2-2-2--|-0-0-0-0-0-0-0-0-|--2-2-2-2-2-2-2-2--|-0-|-2-|
D|-0-0-0-0-0-0-0-0-|--2-2-2-2-2-2-2-2--|-0-0-0-0-0-0-0-0-|--2-2-2-2-2-2-2-2--|-0-|-2-|

[Post-Chorus]

E|-----------------|------------------|-----------------|-------------------|
B|-----------------|------------------|-----------------|-------------------|
G|-----------------|------------------|-----------------|-------------------|
D|-7-7-7-7-7-7-7-7-|-2-2-2-2-2-2-2-2--|-0-0-0-0-0-0-0-0-|--2-2-2-2-2-2-2-2--|
A|-7-7-7-7-7-7-7-7-|-2-2-2-2-2-2-2-2--|-0-0-0-0-0-0-0-0-|--2-2-2-2-2-2-2-2--|
D|-7-7-7-7-7-7-7-7-|-2-2-2-2-2-2-2-2--|-0-0-0-0-0-0-0-0-|--2-2-2-2-2-2-2-2--|

E|-----------------|------------------|-----------------|-------------------|
B|-----------------|------------------|-----------------|-------------------|
G|-----------------|------------------|-----------------|-------------------|
D|-7-7-7-7-7-7-7-7-|-2-2-2-2-2-2-2-2--|-0-0-0-0-0-0-0-0-|--2-2-2-2-2-2-2-2--|
A|-7-7-7-7-7-7-7-7-|-2-2-2-2-2-2-2-2--|-0-0-0-0-0-0-0-0-|--2-2-2-2-2-2-2-2--|
D|-7-7-7-7-7-7-7-7-|-2-2-2-2-2-2-2-2--|-0-0-0-0-0-0-0-0-|--2-2-2-2-2-2-2-2--|


[Verse 2]

"He counted pennies"
E|-----------------|-----------------|-----------------|-----|
B|-----------------|-----------------|-----------------|-----|
G|-----------------|-7-7-7-7-7-7-7-7-|-5-5-5-5-5-5-5-5-|-7---|
D|-5-5-5-5-5-5-5-5-|-7-7-7-7-7-7-7-7-|-5-5-5-5-5-5-5-5-|-7---|
A|-5-5-5-5-5-5-5-5-|-5-5-5-5-5-5-5-5-|-3-3-3-3-3-3-3-3-|-5---|
D|-5-5-5-5-5-5-5-5-|-----------------|-----------------|-----|

"He said Momma made Christmas good"
E|-----------------|-----------------|-----------------|-----------|
B|-----------------|-----------------|-----------------|-----------|
G|-----------------|-7-7-7-7-7-7-7-7-|-5-5-5-5-5-5-5-5-|-7-7-7-7-7-|
D|-5-5-5-5-5-5-5-5-|-7-7-7-7-7-7-7-7-|-5-5-5-5-5-5-5-5-|-7-7-7-7-7-|
A|-5-5-5-5-5-5-5-5-|-5-5-5-5-5-5-5-5-|-3-3-3-3-3-3-3-3-|-5-5-5-5-5-|
D|-5-5-5-5-5-5-5-5-|-----------------|-----------------|-----------|

[Pre-Chorus]

"So I laid the money down"
E|-------------------|-------------------|---------------------------|---------------------------|
B|-------------------|-------------------|---------------------------|---------------------------|
G|-------------------|-------------------|---------------------------|---------------------------|
D|-------------------|-------------------|---------------------------|---------------------------|
A|-------------------|-------------------|--10-10-10-10-12-12-12-12--|--10-10-10-10-12-12-12-12--|
D|-5-5-5-5-4-4-4-4---|-2-2-2-2-0-0-0-0---|---------------------------|---------------------------|

[Chorus]

"Sir, I wanna buy these shoes"
E|-------------------|-------------------|------------------|------------------|
B|-------------------|-------------------|------------------|------------------|
G|-------------------|-9-9-9-9-9-9-9-9---|------------------|------------------|
D|-7-7-7-7-7-7-7-7---|-9-9-9-9-9-9-9-9---|-4-4-4-4-4-4-4-4--|-2-2-2-2-2-2-2-2--|
A|-7-7-7-7-7-7-7-7---|-7-7-7-7-7-7-7-7---|-4-4-4-4-4-4-4-4--|-2-2-2-2-2-2-2-2--|
D|-7-7-7-7-7-7-7-7---|-------------------|-4-4-4-4-4-4-4-4--|-2-2-2-2-2-2-2-2--|

"It's Christmas eve"
E|-----------------|-------------------|-------------------|------------------|
B|-----------------|-------------------|-------------------|------------------|
G|-----------------|-------------------|-------------------|------------------|
D|-0-0-0-0-0-0-0-0-|--2-2-2-2-2-2-2-2--|-7-7-7-7-7-7-7-7---|-2-2-2-2-2-2-2-2--|
A|-0-0-0-0-0-0-0-0-|--2-2-2-2-2-2-2-2--|-7-7-7-7-7-7-7-7---|-2-2-2-2-2-2-2-2--|
D|-0-0-0-0-0-0-0-0-|--2-2-2-2-2-2-2-2--|-7-7-7-7-7-7-7-7---|-2-2-2-2-2-2-2-2--|

"Could you hurry sir"
E|-------------------|-------------------|------------------|------------------|
B|-------------------|-------------------|------------------|------------------|
G|-------------------|-9-9-9-9-9-9-9-9---|------------------|------------------|
D|-7-7-7-7-7-7-7-7---|-9-9-9-9-9-9-9-9---|-4-4-4-4-4-4-4-4--|-2-2-2-2-2-2-2-2--|
A|-7-7-7-7-7-7-7-7---|-7-7-7-7-7-7-7-7---|-4-4-4-4-4-4-4-4--|-2-2-2-2-2-2-2-2--|
D|-7-7-7-7-7-7-7-7---|-------------------|-4-4-4-4-4-4-4-4--|-2-2-2-2-2-2-2-2--|

"You see, she's been sick"
E|-----------------|-------------------|-----------------|-------------------|---|---|
B|-----------------|-------------------|-----------------|-------------------|---|---|
G|-----------------|-------------------|-----------------|-------------------|---|---|
D|-0-0-0-0-0-0-0-0-|--2-2-2-2-2-2-2-2--|-0-0-0-0-0-0-0-0-|--2-2-2-2-2-2-2-2--|-0-|-2-|
A|-0-0-0-0-0-0-0-0-|--2-2-2-2-2-2-2-2--|-0-0-0-0-0-0-0-0-|--2-2-2-2-2-2-2-2--|-0-|-2-|
D|-0-0-0-0-0-0-0-0-|--2-2-2-2-2-2-2-2--|-0-0-0-0-0-0-0-0-|--2-2-2-2-2-2-2-2--|-0-|-2-|

[Bridge]

"I knew I caught a glimpse of Heaven's love"
E|-----------------|-------------------|-----------------|-----------------|
B|-----------------|-------------------|-----------------|-----------------|
G|-----------------|--4-4-4-4-4-4-4-4--|-6-6-6-6-6-6-6-6-|-----------------|
D|-2-2-2-2-2-2-2-2-|--4-4-4-4-4-4-4-4--|-6-6-6-6-6-6-6-6-|-2-2-2-2-2-2-2-2-|
A|-2-2-2-2-2-2-2-2-|--2-2-2-2-2-2-2-2--|-4-4-4-4-4-4-4-4-|-2-2-2-2-2-2-2-2-|
D|-2-2-2-2-2-2-2-2-|-------------------|-----------------|-2-2-2-2-2-2-2-2-|

"I knew that God had sent that little boy"
E|-----------------|-------------------|-----------------|-----------------|
B|-----------------|-------------------|-----------------|-----------------|
G|-----------------|--4-4-4-4-4-4-4-4--|-6-6-6-6-6-6-6-6-|-----------------|
D|-2-2-2-2-2-2-2-2-|--4-4-4-4-4-4-4-4--|-6-6-6-6-6-6-6-6-|-2-2-2-2-2-2-2-2-|
A|-2-2-2-2-2-2-2-2-|--2-2-2-2-2-2-2-2--|-4-4-4-4-4-4-4-4-|-2-2-2-2-2-2-2-2-|
D|-2-2-2-2-2-2-2-2-|-------------------|-----------------|-2-2-2-2-2-2-2-2-|

"I caught a glimpse of Heaven's love"
E|-----------------|-------------------|-----------------|-----------------|
B|-----------------|-------------------|-----------------|-----------------|
G|-----------------|--4-4-4-4-4-4-4-4--|-6-6-6-6-6-6-6-6-|-----------------|
D|-2-2-2-2-2-2-2-2-|--4-4-4-4-4-4-4-4--|-6-6-6-6-6-6-6-6-|-2-2-2-2-2-2-2-2-|
A|-2-2-2-2-2-2-2-2-|--2-2-2-2-2-2-2-2--|-4-4-4-4-4-4-4-4-|-2-2-2-2-2-2-2-2-|
D|-2-2-2-2-2-2-2-2-|-------------------|-----------------|-2-2-2-2-2-2-2-2-|

"I knew that God had sent that little boy"
E|-----------------|-------------------|-----------------|----------|
B|-----------------|-------------------|-----------------|----------|
G|-----------------|--4-4-4-4-4-4-4-4--|-6-6-6-6-6-6-6-6-|----------|
D|-2-2-2-2-2-2-2-2-|--4-4-4-4-4-4-4-4--|-6-6-6-6-6-6-6-6-|-2-2-2----|
A|-2-2-2-2-2-2-2-2-|--2-2-2-2-2-2-2-2--|-4-4-4-4-4-4-4-4-|-2-2-2----|
D|-2-2-2-2-2-2-2-2-|-------------------|-----------------|-2-2-2----|


[Chorus]

"Sir I wanna buy these shoes"
E|------------------|-------------------|-------------------|-----|
B|------------------|-------------------|-------------------|-----|
G|--------------9---|-----7--------9----|-----7--------9----|-----|
D|-----7------9---9-|---7---7----9---9--|---7---7----9---9--|-7---|
A|---7---7--7-------|-5--------7--------|-5--------7--------|-7---|
D|-7----------------|-------------------|-------------------|-7---|

"Could you hurry sir"
E|-------------------|-------------------|------------------|------------------|
B|-------------------|-------------------|------------------|------------------|
G|-------------------|-9-9-9-9-9-9-9-9---|------------------|------------------|
D|-7-7-7-7-7-7-7-7---|-9-9-9-9-9-9-9-9---|-4-4-4-4-4-4-4-4--|-2-2-2-2-2-2-2-2--|
A|-7-7-7-7-7-7-7-7---|-7-7-7-7-7-7-7-7---|-4-4-4-4-4-4-4-4--|-2-2-2-2-2-2-2-2--|
D|-7-7-7-7-7-7-7-7---|-------------------|-4-4-4-4-4-4-4-4--|-2-2-2-2-2-2-2-2--|

"You see, she's been sick"
E|-----------------|-------------------|-----------------|-------------------|
B|-----------------|-------------------|-----------------|-------------------|
G|-----------------|-------------------|-----------------|-------------------|
D|-0-0-0-0-0-0-0-0-|--2-2-2-2-2-2-2-2--|-0-0-0-0-0-0-0-0-|--2-2-2-2-2-2-2-2--|
A|-0-0-0-0-0-0-0-0-|--2-2-2-2-2-2-2-2--|-0-0-0-0-0-0-0-0-|--2-2-2-2-2-2-2-2--|
D|-0-0-0-0-0-0-0-0-|--2-2-2-2-2-2-2-2--|-0-0-0-0-0-0-0-0-|--2-2-2-2-2-2-2-2--|

"I want to her to look beautiful"
E|------------------|------------------|
B|------------------|------------------|
G|------------------|------------------|
D|-0-0-0-0-2-2-2-2--|-0-0-0-0-2-2-2-2--|
A|-0-0-0-0-2-2-2-2--|-0-0-0-0-2-2-2-2--|
D|-0-0-0-0-2-2-2-2--|-0-0-0-0-2-2-2-2--|

"Wanna buy these shoes"
E|-------------------|-------------------|------------------|------------------|
B|-------------------|-------------------|------------------|------------------|
G|-------------------|-9-9-9-9-9-9-9-9---|------------------|------------------|
D|-7-7-7-7-7-7-7-7---|-9-9-9-9-9-9-9-9---|-4-4-4-4-4-4-4-4--|-2-2-2-2-2-2-2-2--|
A|-7-7-7-7-7-7-7-7---|-7-7-7-7-7-7-7-7---|-4-4-4-4-4-4-4-4--|-2-2-2-2-2-2-2-2--|
D|-7-7-7-7-7-7-7-7---|-------------------|-4-4-4-4-4-4-4-4--|-2-2-2-2-2-2-2-2--|

"It's Christmas eve"
E|-----------------|-------------------|-------------------|------------------|
B|-----------------|-------------------|-------------------|------------------|
G|-----------------|-------------------|-------------------|------------------|
D|-0-0-0-0-0-0-0-0-|--2-2-2-2-2-2-2-2--|-7-7-7-7-7-7-7-7---|-2-2-2-2-2-2-2-2--|
A|-0-0-0-0-0-0-0-0-|--2-2-2-2-2-2-2-2--|-7-7-7-7-7-7-7-7---|-2-2-2-2-2-2-2-2--|
D|-0-0-0-0-0-0-0-0-|--2-2-2-2-2-2-2-2--|-7-7-7-7-7-7-7-7---|-2-2-2-2-2-2-2-2--|

"Could you hurry sir"
E|-------------------|-------------------|------------------|------------------|
B|-------------------|-------------------|------------------|------------------|
G|-------------------|-9-9-9-9-9-9-9-9---|------------------|------------------|
D|-7-7-7-7-7-7-7-7---|-9-9-9-9-9-9-9-9---|-4-4-4-4-4-4-4-4--|-2-2-2-2-2-2-2-2--|
A|-7-7-7-7-7-7-7-7---|-7-7-7-7-7-7-7-7---|-4-4-4-4-4-4-4-4--|-2-2-2-2-2-2-2-2--|
D|-7-7-7-7-7-7-7-7---|-------------------|-4-4-4-4-4-4-4-4--|-2-2-2-2-2-2-2-2--|

"You see, she's been sick"
E|-----------------|-------------------|-----------------|-------------------|---|---|
B|-----------------|-------------------|-----------------|-------------------|---|---|
G|-----------------|-------------------|-----------------|-------------------|---|---|
D|-0-0-0-0-0-0-0-0-|--2-2-2-2-2-2-2-2--|-0-0-0-0-0-0-0-0-|--2-2-2-2-2-2-2-2--|-0-|-2-|
A|-0-0-0-0-0-0-0-0-|--2-2-2-2-2-2-2-2--|-0-0-0-0-0-0-0-0-|--2-2-2-2-2-2-2-2--|-0-|-2-|
D|-0-0-0-0-0-0-0-0-|--2-2-2-2-2-2-2-2--|-0-0-0-0-0-0-0-0-|--2-2-2-2-2-2-2-2--|-0-|-2-|

[Outro]

E|-----------------|------------------|-----------------|-------------------|
B|-----------------|------------------|-----------------|-------------------|
G|-----------------|------------------|-----------------|-------------------|
D|-7-7-7-7-7-7-7-7-|-2-2-2-2-2-2-2-2--|-0-0-0-0-0-0-0-0-|--2-2-2-2-2-2-2-2--|
A|-7-7-7-7-7-7-7-7-|-2-2-2-2-2-2-2-2--|-0-0-0-0-0-0-0-0-|--2-2-2-2-2-2-2-2--|
D|-7-7-7-7-7-7-7-7-|-2-2-2-2-2-2-2-2--|-0-0-0-0-0-0-0-0-|--2-2-2-2-2-2-2-2--|

E|-----------------|------------------|-----------------|-------------------|
B|-----------------|------------------|-----------------|-------------------|
G|-----------------|------------------|-----------------|-------------------|
D|-7-7-7-7-7-7-7-7-|-2-2-2-2-2-2-2-2--|-0-0-0-0-0-0-0-0-|--2-2-2-2-2-2-2-2--|
A|-7-7-7-7-7-7-7-7-|-2-2-2-2-2-2-2-2--|-0-0-0-0-0-0-0-0-|--2-2-2-2-2-2-2-2--|
D|-7-7-7-7-7-7-7-7-|-2-2-2-2-2-2-2-2--|-0-0-0-0-0-0-0-0-|--2-2-2-2-2-2-2-2--|

E|-----------------|------------------|-----------------|-------------------|
B|-----------------|------------------|-----------------|-------------------|
G|-----------------|------------------|-----------------|-------------------|
D|-7-7-7-7-7-7-7-7-|-2-2-2-2-2-2-2-2--|-0-0-0-0-0-0-0-0-|--2-2-2-2-2-2-2-2--|
A|-7-7-7-7-7-7-7-7-|-2-2-2-2-2-2-2-2--|-0-0-0-0-0-0-0-0-|--2-2-2-2-2-2-2-2--|
D|-7-7-7-7-7-7-7-7-|-2-2-2-2-2-2-2-2--|-0-0-0-0-0-0-0-0-|--2-2-2-2-2-2-2-2--|

E|-----------------|------------------|-----------------|-------------------|
B|-----------------|------------------|-----------------|-------------------|
G|-----------------|------------------|-----------------|-------------------|
D|-7-7-7-7-7-7-7-7-|-2-2-2-2-2-2-2-2--|-0-0-0-0-0-0-0-0-|--2-2-2-2-2-2-2-2--|
A|-7-7-7-7-7-7-7-7-|-2-2-2-2-2-2-2-2--|-0-0-0-0-0-0-0-0-|--2-2-2-2-2-2-2-2--|
D|-7-7-7-7-7-7-7-7-|-2-2-2-2-2-2-2-2--|-0-0-0-0-0-0-0-0-|--2-2-2-2-2-2-2-2--|

            
            
Suggest correction
Creating personal tab
Creating personal tab
You can edit any tab online and save it as your Personal.

You can edit, replace or remove any tab part or add personal notes – all changes will be seen only by you.

Personal tabs can be accessed anytime from any device, even offline.
Learn more »
comments
print report bad tab
2 comments total.
-1 reply
SashiMurai 41 Jun 02, 2013 11:22 AM

This isn't an FM Static song. It's a song by the band "Newsong."

0 reply
notgonnadie 490 Nov 29, 2017 03:26 PM

Lol this is a cover by FM Static.

guest
Wanna post a correction for this tab? Suggest correction