Oops, an error
Loading. Please wait.

Tonight tab

version 4
version 4

Interactive

35,588 views 3 this week
1 commentread comment
1 2 3 4 5
x 3
add to favorites
×
Save as Personal and add changes to this tab that will be seen only by you. Learn more ›
×
You can save this tab as Personal to edit and correct it or add notes. All changes will be seen only by you. Learn more »
launch autoscroll
font size
0
reset
how to read this tab
guitar tuner
edit
Autoscroll
slow
fast
+/-
esc
set tempo
stop
Author
Song: Tonight
Artist: FM Static
Album: Critically Ashamed
Tab and Chords by: Jorem (jOr3m_01@yahoo.com)

  Just listen carefully to the songs while you are trying this chords...
You can also use capo.. if u use a capo, make sure that u will minus 1 
all the numbers in the tab and the chords will lower.. the 
chords became like this, D# = D, Cm = Bm, G# = G and Bb = A...
Hope u enjoy it.. ^_^ If there something u want to ask about this.,
just email me or send a message to my frndstr. . .

Tuning: Standard


[Intro]
D#-G#(2x)

    D#               G#            D#                G#
E|--1---3---1--------1---3---1--|--1---3---1---------1/4--3--1-------|
B|--4-4---4-4-4--4-----4---4----|--4-4---4-4-4--4--------------------|
G|-------------3--3-------------|-------------3--3-------------------|
D|--1-------1--------1----------|--1-------1-------------------------|
A|------------------------------|------------------------------------|
E|------------------------------|------------------------------------|


[Verse 1]
    D#               G#            D#                G#
E|--1---3---1--------1---3---1--|--1---3---1---------4--3--1-------|
B|--4-4---4-4-4--4---4-4---4-4--|--4-4---4-4-4--4------------------|
G|-------------3--3-------------|-------------3--3-----------------|
D|--1-------1-------------------|--1-------1-----------------------|
A|------------------------------|----------------------------------|
E|-------------------4----------|--------------------4-------------|

    Fm               G#            Fm                Bb
E|--1---3---1--------1---3---1--|--1---3---1---------4--3--1-------|
B|----4---4---4--4-----4---4----|----4---4---4--4------------------|
G|-------------3--3-------------|-------------3--3-----------------|
D|------------------------------|----------------------------------|
A|------------------------------|--------------------1-------------|
E|--1----------------4----------|--1-------------------------------|

    D#               G#
E|--1---3---1--------1---3---1--|
B|--4-4---4-4-4--4-----4---4-4--|
G|-------------3--3-------------|
D|--1-------1--------1----------|
A|------------------------------|
E|------------------------------|


[Verse 2]

    D#               Bb            Cm                G#
E|--1---3---1--------1---3---1--|--1---3---1---------4--3--1-------|
B|--4-4---4---4--4-----4---4----|----4---4---4--4------------------|
G|-------------3--3-------------|-------------3--3-----------------|
D|--1-------1--------3----------|----------------------------------|
A|------------------------------|--3-------------------------------|
E|------------------------------|--------------------4-------------|


    Fm               G#
E|--1---3---1--------1---3---1--|
B|----4---4---4--4-----4---4----|
G|-------------3--3-------------|
D|------------------------------|
A|------------------------------|
E|--1----------------4----------|

[Chorus]
     D#        Cm           G#        Bb
Tonight I've fallen and I can't get up
             D#       G#               Cm      Bb
I need your loving hands to come and pick me up
            D#       Cm            G#        Bb
And every night I miss you I can just look up
               D#         G#           Cm           Bb
and know the stars are holdin' you, holdin' you, holdin' you

tonight

    D#              G#
E|--------1---------------------|
B|------4---4-------------4-----|
G|----3-------3---3---1-3-------|
D|--1-----------1---------------|
A|------------------------------|
E|------------------4-----------|


[Verse 3]


    D#               Bb            Cm                G#
E|--1---3---1--------1---3---1--|--1---3---1---------4--3--1-------|
B|--4-4---4---4--4-----4---4----|----4---4---4--4------------------|
G|-------------3--3-------------|-------------3--3-----------------|
D|--1-------1--------3----------|----------------------------------|
A|------------------------------|--3-------------------------------|
E|------------------------------|--------------------4-------------|

    D#               Bb            Cm                G#
E|--1---3---1--------1---3---1--|--1---3---1---------4--3--1-------|
B|--4-4---4---4--4-----4---4----|----4---4---4--4------------------|
G|-------------3--3-------------|-------------3--3-----------------|
D|--1-------1--------3----------|----------------------------------|
A|------------------------------|--3-------------------------------|
E|------------------------------|--------------------4-------------|

    D#               Bb            Cm                G#
E|--1---3---1--------1---3---1--|--1---3---1---------4--3--1-------|
B|--4-4---4---4--4-----4---4----|----4---4---4--4------------------|
G|-------------3--3-------------|-------------3--3-----------------|
D|--1-------1--------3----------|----------------------------------|
A|------------------------------|--3-------------------------------|
E|------------------------------|--------------------4-------------|

    Fm               G#
E|--1---3---1--------1---3---1--|
B|----4---4---4--4-----4---4----|
G|-------------3--3-------------|
D|------------------------------|
A|------------------------------|
E|--1----------------4----------|


[Chorus]

I sing
    D#        Cm           G#        Bb
Tonight I've fallen and I can't get up
             D#       G#               Cm      Bb
I need your loving hands to come and pick me up
            D#       Cm            G#        Bb
And every night I miss you I can just look up
               D#         G#           Cm            Bb
and know the stars are holdin' you, holdin' you, holdin' you

tonight.

    D#              G#             D#              G#
E|--1-----1---------------------|--1-----1---------------------|
B|------4---4--4----------4-----|------4---4--4----------4-----|
G|----3-------3-3-----1-3-------|----3-------3-3-----1-3-------|
D|--1---------------------------|--1---------------------------|
A|------------------------------|------------------------------|
E|------------------4-----------|------------------4-----------|


    Fm               Bb
E|--1---3---1--------1---3--------|
B|----4---4---4--4-----4---4—6p4--|
G|-------------3--3---------------|
D|--------------------------------|
A|-------------------1------------|
E|--1-----------------------------|


[Chorus]

I sing
    D#        Cm           G#        Bb
Tonight I've fallen and I can't get up
             D#       G#               Cm      Bb
I need your loving hands to come and pick me up
            D#       Cm            G#        Bb
And every night I miss you I can just look up
               D#         G#           Cm            Bb
and know the stars are holdin' you, holdin' you, holdin' you

tonight.

    D#              G#
E|--------1---------------------|
B|------4---4-------------4-----|
G|----3-------3-------1-3-------|
D|--1-----------1---------------|
A|------------------------------|
E|------------------4-----------|

Tonight Chords:

[Intro]
D#-G#(2x)


[Verse]
                 D#                G#
I remember the times we spent together on those drives
         D#                      G#
We had a million questions all about our lives
             Fm                   G#
and when we got to New York everything felt right
   Fm                    Bb
I wish you were here with me
        D#-G#
Tonight.

                 D#                     Bb
I remember the days we spent together were not enough
                 Cm                             G#
and it used to feel like dreamin' except we always woke up
                   Fm                         Bb
Never thought not having you here now would hurt so much


[Chorus]
     D#        Cm           G#        Bb
Tonight I've fallen and I can't get up
             D#       G#               Cm      Bb
I need your loving hands to come and pick me up
            D#       Cm            G#        Bb
And every night I miss you I can just look up
               D#         G#           Cm           Bb
and know the stars are holdin' you, holdin' you, holdin' you
       D#-G#
tonight


[Verse]
                D#                          Bb
I remember the time you told me about when you were eight
                Cm                             G#
And all those things you said that night that just couldn't wait
                 D#                                Bb
I remember the car you were last seen in and the games we would play
                    Cm                             G#
All the times we spilled our coffees and stayed out way too late
                D#                           Bb
I remember the time you sat and told me about your Jesus
            Cm                    G#
and how not to look back even if no one believes us
          Fm                        Bb
When it hurt so bad sometimes not having you here...

[Chorus]

I sing
    D#        Cm           G#        Bb
Tonight I've fallen and I can't get up
             D#       G#               Cm      Bb
I need your loving hands to come and pick me up
            D#       Cm            G#        Bb
And every night I miss you I can just look up
               D#         G#           Cm            Bb
and know the stars are holdin' you, holdin' you, holdin' you

tonight.

Adlib:
D#-G#-2x
Fm-Bb

[Chorus]

I sing
    D#        Cm           G#        Bb
Tonight I've fallen and I can't get up
             D#       G#               Cm      Bb
I need your loving hands to come and pick me up
            D#       Cm            G#        Bb
And every night I miss you I can just look up
               D#         G#           Cm            Bb
and know the stars are holdin' you, holdin' you, holdin' you
       D#-G#
Tonight...

            
            
Suggest correction
Creating personal tab
Creating personal tab
You can edit any tab online and save it as your Personal.

You can edit, replace or remove any tab part or add personal notes – all changes will be seen only by you.

Personal tabs can be accessed anytime from any device, even offline.
Learn more »
Give kudos to tab author, rate the tab!
1 2 3 4 5
comments
print report bad tab
1 comment total.
0 reply
tokiz 10 Nov 24, 2008 01:27 AM

nice tab although its a little bit hard to play..hehehe

guest
You may want to rate the tab now too:
select rating
Wanna post a correction for this tab? Suggest correction