Oops, an error
Loading. Please wait.

Tonight tab

version 5
version 5

Interactive

22,377 views 1 this week
1 commentread comment
1 2 3 4 5
1 last vote to show rating
add to favorites
×
Save as Personal and add changes to this tab that will be seen only by you. Learn more ›
×
You can save this tab as Personal to edit and correct it or add notes. All changes will be seen only by you. Learn more »
launch autoscroll
font size
0
reset
how to read this tab
guitar tuner
edit
Autoscroll
slow
fast
+/-
esc
set tempo
stop
Author
NOTE: I used power chords in tabbing this song. This ain't 100% correct tab of the
song but, this is how I play the song.

tabbed by: Auston Ang (iskai fliks)

legend:
/=slide


Intro:
e-----------------------------|
b-----5-------5---------5-7---|
g---------7-----7---7-------7-|
d-------7---------7-----------|
a-----5-----5---------5-------|
e-----------------------------|

e-------------------------------|
b-----5-------5---------7/8-7---|
g---------7-----7---7---------7-|
d-------7---------7-------------|
a-----5-----5---------5---------|
e-------------------------------|

verse 1:
e-----------------------------|
b-----5-------5---------5-7---|
g---------7-----7---7-------7-|
d-------7---------7-----------|
a-----5-----5---------5-------|
e-----------------------------|

e-------------------------------|
b-----5-------5---------7/8-7---|
g---------7-----7---7---------7-|
d-------7---------7-------------|
a-----5-----5---------5---------|
e-------------------------------|

e--------------------------|
b-----5-7-8-7-5--5-7-7/8-5-|
g--------------------------|
d--------------------------|
a-----5----------5---------|
e--------------------------|

e--------------------------|
b-----5-7-8-7-5--5-7-7/8-5-|
g--------------------------|
d--------------------------|
a-----5----------5---------|
e--------------------------|

e-----------------------------|
b-----5-------5---------5-7---|
g---------7-----7---7-------7-|
d-------7---------7-----------|
a-----5-----5---------5-------|
e-----------------------------|

verse 2:


e-----------------------------|
b-----5-------5---------5-7---|
g---------7-----7---7-------7-|
d-------7---------7-----------|
a-----5-----5---------5-------|
e-----------------------------|

e-------------------------------|
b-----5-------5---------7/8-7---|
g---------7-----7---7---------7-|
d-------7---------7-------------|
a-----5-----5---------5---------|
e-------------------------------|

e--------------------------|
b-----5-7-8-7-5--5-7-7/8-5-|
g--------------------------|
d--------------------------|
a-----5----------5---------|
e--------------------------|

Chorus:
  D             Bm          G        A
Tonight I've fallen and I can't get up
             D      Bm                G      A
I need your loving hands to come and pick me up
           D       Bm              G        A
And every night I miss you, I can just look up
               D
And know the stars are
 Bm            G           A
Holding you, holding you, holding you

Tonight


e-----------------------------|
b-----5-----5---------5-------|
g---------7---7---7-----7---7-|
d-------7-------7-------------|
a-----5-------------5-----5---|
e-----------------------------|

verse 3:
e-----------------------------|
b-----5-------5---------5-7---|
g---------7-----7---7-------7-|
d-------7---------7-----------|
a-----5-----5---------5-------|
e-----------------------------|

e-------------------------------|
b-----5-------5---------7/8-7---|
g---------7-----7---7---------7-|
d-------7---------7-------------|
a-----5-----5---------5---------|
e-------------------------------|

e--------------------------|
b-----5-7-8-7-5--5-7-7/8-5-|
g--------------------------|
d--------------------------|
a-----5----------5---------|
e--------------------------|

e--------------------------|
b-----5-7-8-7-5--5-7-7/8-5-|
g--------------------------|
d--------------------------|
a-----5----------5---------|
e--------------------------|

e-----------------------------|
b-----5-------5---------5-7---|
g---------7-----7---7-------7-|
d-------7---------7-----------|
a-----5-----5---------5-------|
e-----------------------------|

e-------------------------------|
b-----5-------5---------7/8-7---|
g---------7-----7---7---------7-|
d-------7---------7-------------|
a-----5-----5---------5---------|
e-------------------------------|

e--------------------------|
b-----5-7-8-7-5--5-7-7/8-5-|
g--------------------------|
d--------------------------|
a-----5----------5---------|
e--------------------------|

(repeat chorus)


e-----------------------------|
b-----5-------5---------5-7---|
g---------7-----7---7-------7-|
d-------7---------7-----------|
a-----5-----5---------5-------|
e-----------------------------|

e-------------------------------|
b-----5-------5---------7/8-7---|
g---------7-----7---7---------7-|
d-------7---------7-------------|
a-----5-----5---------5---------|
e-------------------------------|

e--------------------------|
b-----5-7-8-7-5--5-7-7/8-5-|
g--------------------------|
d--------------------------|
a-----5----------5---------|
e--------------------------|

I say..
(repeat chorus)


e-----------------------------|
b-----5-----5---------5-------|
g---------7---7---7-----7---7-|
d-------7-------7-------------|
a-----5-------------5-----5---|
e-----------------------------|

            
            
Suggest correction
Creating personal tab
Creating personal tab
You can edit any tab online and save it as your Personal.

You can edit, replace or remove any tab part or add personal notes – all changes will be seen only by you.

Personal tabs can be accessed anytime from any device, even offline.
Learn more »
Give kudos to tab author, rate the tab!
1 2 3 4 5
comments
print report bad tab
1 comment total.
0 reply
yakal10-11 10 Jul 20, 2010 04:13 AM

Intro:
e-----------------------------|
b-----5-------5---------5-7-5-|
g---------7-----7---7---------|
d-------7---------7-----------|
a-----5-----5---------5-------|
e-----------------------------|

instead of
e-----------------------------|
b-----5-------5---------5-7---|
g---------7-----7---7-------7-|
d-------7---------7-----------|
a-----5-----5---------5-------|
e-----------------------------|

guest
You may want to rate the tab now too:
select rating
Wanna post a correction for this tab? Suggest correction