Oops, an error
Loading. Please wait.
We have an official Balloons tab made by UG professional guitarists. Check out the tab »
×
by Foals
3,937 views 1 this week
2 commentsread comments
1 2 3 4 5
2 more votes to show rating
add to favorites
×
Save as Personal and add changes to this tab that will be seen only by you. Learn more ›
×
You can save this tab as Personal to edit and correct it or add notes. All changes will be seen only by you. Learn more »
launch autoscroll
font size
0
reset
guitar tuner
edit
Autoscroll
slow
fast
+/-
esc
set tempo
stop
Difficulty
G|--------------------------------------------------------------------------|
D|--------------------------------------------------------------------------|
A|-33-22---------33-22---------33-22---------33-22-55-7777------------------|
E|--------33-55---------33-55---------33-55---------------------------------|

this is basically the song
just repeat

            
            
Suggest correction
Creating personal tab
Creating personal tab
You can edit any tab online and save it as your Personal.

You can edit, replace or remove any tab part or add personal notes – all changes will be seen only by you.

Personal tabs can be accessed anytime from any device, even offline.
Learn more »
Give kudos to tab author, rate the tab!
1 2 3 4 5
comments
print report bad tab
2 comments total.
+1 reply
lauriehumphrey 31 Feb 27, 2008 08:48 AM

G|--------------------------------------------------------------------------|
D|-33-22---------33-22---------33-22---------33-22-55-7777------------------|
A|--------33-55---------33-55---------33-55---------------------------------|
E|--------------------------------------------------------------------------|

think it should be shifted up a string mate.
that's the basics. not sure about the rest of it.

0 reply
DBC99 71 Oct 29, 2014 05:18 AM

Lack of accuracy. It is all tabbed wrong- all on the wrong string, the correction in the comment is correct. If you could just edit it to what lauriehumphrey wrote

guest
Wanna post a correction for this tab? Suggest correction