Oops, an error
Loading. Please wait.
We have an official Balloons tab made by UG professional guitarists. Check out the tab »
×
by Foals
5,945 views 6 this week
no commentswrite comment
1 2 3 4 5
3 more votes to show rating
add to favorites
×
Save as Personal and add changes to this tab that will be seen only by you. Learn more ›
×
You can save this tab as Personal to edit and correct it or add notes. All changes will be seen only by you. Learn more »
launch autoscroll
font size
0
reset
how to read this tab
guitar tuner
edit
Autoscroll
slow
fast
+/-
esc
set tempo
stop
Author
hay this is balloons by foals, no surprises there, i think everything's
 alright but the verse may sound a bit off its hard stuff doing these tabs



Intro
e|--------------------------------------------------|
B|--------------------------------------------------|
G|--14-17-14-17-14-17-14-17-14-17-14-17-14-17-14-17-| x6 yo
D|--------------------------------------------------|
A|--------------------------------------------------|
E|--------------------------------------------------|

Verse
e|--------------------------------------------------|
B|--------------------------------------------------|
G|--17-19-17-14-14/17-17-19-17----17-19-17----------|
D|-----------------------------19-------------------|
A|--------------------------------------------------|
E|--------------------------------------------------|

Chorus
e|--17-17-15-15-------------13-13-12-12-------------|
B|--------------17-17-15-15-------------13-13-15-15-|
G|--------------------------------------------------| x2
D|--------------------------------------------------|
A|--------------------------------------------------|
E|--------------------------------------------------|

bridge thing
e|--------------------------------------------------|
B|--------------------------------------------------|
G|----------------------------------- x3 -----------|
D|--7----7----7----7--------------------------------|
A|--7----7----7----7--------------------------------|
E|--5----5----5----5--------------------------------|


and there we go balloons make sure u play the verse bit quietly through the 
whole song and invest in crows to eat bread off a table for the full impact. 

            
            
Suggest correction
Creating personal tab
Creating personal tab
You can edit any tab online and save it as your Personal.

You can edit, replace or remove any tab part or add personal notes – all changes will be seen only by you.

Personal tabs can be accessed anytime from any device, even offline.
Learn more »
Give kudos to tab author, rate the tab!
1 2 3 4 5
comments
print report bad tab
guest
You may want to rate the tab now too:
select rating
Wanna post a correction for this tab? Suggest correction