Oops, an error
Loading. Please wait.

Hummer tab

version 4
version 4

Whole song

Interactive

by Foals
154 views 3 this week
no commentswrite comment
1 2 3 4 5
2 more votes to show rating
add to favorites
×
Save as Personal and add changes to this tab that will be seen only by you. Learn more ›
×
You can save this tab as Personal to edit and correct it or add notes. All changes will be seen only by you. Learn more »
launch autoscroll
font size
0
reset
how to read this tab
guitar tuner
edit
Autoscroll
slow
fast
+/-
esc
set tempo
stop
Song: Hummer
Artist: Foals
Album: Antidotes (2007) Bonus Track

Tabbed by: Oscar Peña
--------------------------------------------------------------------------------
You can hear the mp3 created with FL Studio 
here: https://soundcloud.com/ozkar-ph/foals-hummer-cover-in-fl-studio
to check that it’s accurate. 
You can hear Yannis on the right speaker and Jimmy on the left speaker. **
--------------------------------------------------------------------------------

Tuning: All Foals songs are in Drop D.
Tempo: 148 BPM
Key: C
Time Signature: 4/4
I tabbed the Yannis, Jimmy and Edwin parts.  

------------------------------ INTRO ----------------------------------------------------
First two bars with drums.
From bar 3 to 6: Sytnh Fig.1; Jimmy Fig.1
Synth: Fig.1
  (3)                   (4)                  (5)                  (6)
e||------------------------|------------------------|------------------------|------------------------||
B||------------------------|------------------------|------------------------|------------------------||
G||------------------------|------------------------|------------------------|------------------------||
D||------7-----------7-----|------7-----------7-----|------7-----------7-----|------7-----------7-----||
A||------------------------|------------------------|------------------------|------------------------||
D||------------------------|------------------------|------------------------|------------------------||
   1  +  2  +  3  +  4  +   1  +  2  +  3  +  4  +   1  +  2  +  3  +  4  +   1  +  2  +  3  +  4  +       
Jimmy: Fig.1
e||------------------------|------------------------|------------------------|------------------------||
B||------------------------|------------------------|------------------------|------------------------||
G||------------------------|------------------------|------------------------|------------------------||
D||------7-----------7-----|------7-----------7-----|------14----------14----|------12----------10-//-||
A||------------------------|------------------------|------------------------|------------------------||
D||------------------------|------------------------|------------------------|------------------------||
   1  +  2  +  3  +  4  +   1  +  2  +  3  +  4  +   1  +  2  +  3  +  4  +   1  +  2  +  3  +  4  +       

From bar 7 to 18: Sytnh Fig.1; Jimmy Fig.1 and Yannis Fig.1
Yannis: Fig.1
  (7)                   (8)                  (9)                  (10)
e||------------------------|------------------------|------------------------|------------------------||
B||------------------------|------------------------|------------------------|------------------------||
G||------------------------|------------------------|------------------------|------------------------||
D||77---77--77-------------|77---77--77-------------|77---77--77-------------|77---77--77-------------||
A||------------------------|------------------------|------------------------|------------------------||
D||------------------------|------------------------|------------------------|------------------------||
   1  +  2  +  3  +  4  +   1  +  2  +  3  +  4  +   1  +  2  +  3  +  4  +   1  +  2  +  3  +  4  +       

------------------------------ VERSE 1 ---------------------------------------------------
“Quiet heartbeats...”
From bar 19 to 34: Sytnh Fig.2; Jimmy Fig.2 and Yannis Fig.2

Synth: Fig.2
  (19)                 (20)                  (21)                 (22)
e||------------------------|------------------------|------------------------|------------------------||
B||------------------------|------------------------|------------------------|------------------------||
G||14--14---14-------17----|14--14---14-------17----|14--14---14-------17----|14--14---14-------17----||
D||------------------------|------------------------|------------------------|------------------------||
A||------------------------|------------------------|------------------------|------------------------||
D||------------------------|------------------------|------------------------|------------------------||
   1  +  2  +  3  +  4  +   1  +  2  +  3  +  4  +   1  +  2  +  3  +  4  +   1  +  2  +  3  +  4  +       
Jimmy: Fig.2
e||------------------------|------------------------|------------------------|------------------------||
B||------------------------|------------------------|------------------------|------------------------||
G||---------12----9--------|---------12----9--------|------------------------|------------14----------||
D||------------------10----|------------------10----|---------12----7--------|---12----12-------------||
A||12---12-----------------|12---12-----------------|10---10-----------7-----|12----12-------12p0-----||
D||------------------------|------------------------|------------------------|------------------------||
   1  +  2  +  3  +  4  +   1  +  2  +  3  +  4  +   1  +  2  +  3  +  4  +   1  +  2  +  3  +  4  +       
Yannis: Fig.2
e||------------------------|------------------------|------------------------|------------------------||
B||------------------------|------------------------|------------------------|------------------------||
G||------------------------|------------------------|------------------------|------------------------||
D||7----77--10----9--7-----|7----77--10----9--7-----|---------9p7------------|---------9p7------------||
A||------------------------|------------------------|10--1010-------8--7-----|10--1010-------8--7-----||
D||------------------------|------------------------|------------------------|------------------------||
   1  +  2  +  3  +  4  +   1  +  2  +  3  +  4  +   1  +  2  +  3  +  4  +   1  +  2  +  3  +  4  +      
 
------------------------------ CHORUS ----------------------------------------------------
“Oh, come on...”
From bar 35 to 38: Sytnh Fig.3; Jimmy Fig.3A and Yannis Fig.3
From bar 39 to 42: Sytnh Fig.3; Jimmy Fig.3B and Yannis Fig.3

Synth: Fig.3
  (35)                 (36)                  (37)                 (38)
e||---17-------------------|---17-------------------|---17-------------------|---17-------------------||
B||-----17-----------------|-----17-----------------|-----17-----------------|-----17-----------------||
G||0h14--------------------|0h14--------------------|0h14--------------------|0h14--------------------||
D||------------------------|------------------------|------------------------|------------------------||
A||------------------------|------------------------|------------------------|------------------------||
D||------------------------|------------------------|------------------------|------------------------||
   1  +  2  +  3  +  4  +   1  +  2  +  3  +  4  +   1  +  2  +  3  +  4  +   1  +  2  +  3  +  4  +       
Jimmy: Fig.3A (With delay)
e||------------------------|------------------------|------------------------|------------------------||
B||------------------------|------------------------|------------------------|------------------------||
G||---------12----------12-|---------12----------12-|---------12----------12-|---------12----------12-||
D||12----------12----------|12----------12----------|12----------12----------|12----------12----------||
A||------------------------|------------------------|------------------------|------------------------||
D||------------------------|------------------------|------------------------|------------------------||
   1  +  2  +  3  +  4  +   1  +  2  +  3  +  4  +   1  +  2  +  3  +  4  +   1  +  2  +  3  +  4  +       
Yannis: Fig.3 (With delay)
e||------------------------|------------------------|------------------------|------------------------||
B||------------------------|------------------------|------------------------|------------------------||
G||-----12--14------12--14-|-----12--14------12--14-|-----12--14------12--14-|-----12--14------12--14-||
D||12----------12----------|12----------12----------|12----------12----------|12----------12----------||
A||------------------------|------------------------|------------------------|------------------------||
D||------------------------|------------------------|------------------------|------------------------||
   1  +  2  +  3  +  4  +   1  +  2  +  3  +  4  +   1  +  2  +  3  +  4  +   1  +  2  +  3  +  4  +       
Jimmy: Fig.3B (With delay)
  (39)                 (40)                  (41)                 (42)
e||---------12----------12-|---------12----------12-|---------12----------12-|---------12----------12-||
B||-----13----------13-----|-----13----------13-----|-----13----------13-----|-----13----------13-----||
G||14----------14----------|14----------14----------|14----------14----------|14----------14----------||
D||------------------------|------------------------|------------------------|------------------------||
A||------------------------|------------------------|------------------------|------------------------||
D||------------------------|------------------------|------------------------|------------------------||
   1  +  2  +  3  +  4  +   1  +  2  +  3  +  4  +   1  +  2  +  3  +  4  +   1  +  2  +  3  +  4  +       

------------------------------ BREAKDOWN 1 ----------------------------------------------------
From bar 43 to 50: Sytnh Fig.4.A; Jimmy Fig.4.A and Yannis Fig.4.A
Synth: Fig.4.A
  (43)                 (44)                  (45)                 (46)
e||---17-------15-15-13-13-|---17-------15-15-13-13-|---17-------15-15-13-13-|---17-------15-15-13-13-||
B||-----17-----15-15-13-15-|-----17-----15-15-13-15-|-----17-----15-15-13-15-|-----17-----15-15-13-15-||
G||0h14--14----------------|0h14--14----------------|0h14--14----------------|0h14--14----------------||
D||------------------------|------------------------|------------------------|------------------------||
A||------------------------|------------------------|------------------------|------------------------||
D||------------------------|------------------------|------------------------|------------------------||
   1  +  2  +  3  +  4  +   1  +  2  +  3  +  4  +   1  +  2  +  3  +  4  +   1  +  2  +  3  +  4  +       
Jimmy: Fig.4.A
e||------------------------|------------------------|------------------------|------------------------||
B||------------------------|------------------------|------------------------|------------------------||
G||------------------------|------------------------|------------------------|------------------------||
D||------7-----------7-----|------7-----------7-----|------14----------14----|------12----------10-//-||
A||------------------------|------------------------|------------------------|------------------------||
D||------------------------|------------------------|------------------------|------------------------||
   1  +  2  +  3  +  4  +   1  +  2  +  3  +  4  +   1  +  2  +  3  +  4  +   1  +  2  +  3  +  4  +       
Yannis: Fig.4.A
e||------------------------|------------------------|------------------------|------------------------||
B||------------------------|------------------------|------------------------|------------------------||
G||------------------------|------------------------|------------------------|------------------------||
D||77---77--77-------------|77---77--77-------------|77---77--77-------------|77---77--77-------------||
A||------------------------|------------------------|------------------------|------------------------||
D||------------------------|------------------------|------------------------|------------------------||
   1  +  2  +  3  +  4  +   1  +  2  +  3  +  4  +   1  +  2  +  3  +  4  +   1  +  2  +  3  +  4  +       

“We are everywhere...”
From bar 51 to 58: Sytnh Fig.4.B; Jimmy Fig.4.B and Yannis Fig.4.B
Synth: Fig.4.B
  (51)                   (52)                  (53)                (54)
e||------------------------|------------------------|------------------------|------------------------||
B||------------------------|------------------------|------------------------|------------------------||
G||------------------------|------------------------|------------------------|------------------------||
D||------7-----------7-----|------7-----------7-----|------7-----------7-----|------7-----------7-----||
A||------------------------|------------------------|------------------------|------------------------||
D||------------------------|------------------------|------------------------|------------------------||
   1  +  2  +  3  +  4  +   1  +  2  +  3  +  4  +   1  +  2  +  3  +  4  +   1  +  2  +  3  +  4  +       
Jimmy: Fig. 4.B
e||------------------------|------------------------|------------------------|------------------------||
B||------------------------|------------------------|------------------------|------------------------||
G||------------------------|------------------------|------------------------|------------------------||
D||------7-----------7-----|------7-----------7-----|------14----------14----|------12----------10-//-||
A||------------------------|------------------------|------------------------|------------------------||
D||------------------------|------------------------|------------------------|------------------------||
   1  +  2  +  3  +  4  +   1  +  2  +  3  +  4  +   1  +  2  +  3  +  4  +   1  +  2  +  3  +  4  +       
Yannis: Fig. 4.B
e||------------------------|------------------------|------------------------|------------------------||
B||------------------------|------------------------|------------------------|------------------------||
G||------------------------|------------------------|------------------------|------------------------||
D||77---77--77-------7-----|77---77--77-------7-----|77---77--77-------7-----|77---77--77-------------||
A||------------------------|------------------------|------------------------|------------------10p0--||
D||------------------------|------------------------|------------------------|------------------------||
   1  +  2  +  3  +  4  +   1  +  2  +  3  +  4  +   1  +  2  +  3  +  4  +   1  +  2  +  3  +  4  +       

------------------------------ CHORUS ----------------------------------------------------
“Oh, come on...”
From bar 59 to 62: Sytnh Fig.3; Jimmy Fig.3A and Yannis Fig.3
From bar 63 to 66: Sytnh Fig.3; Jimmy Fig.3B and Yannis Fig.3

Synth: Fig.3
  (59)                 (60)                  (61)                 (62)
e||---17-------------------|---17-------------------|---17-------------------|---17-------------------||
B||-----17-----------------|-----17-----------------|-----17-----------------|-----17-----------------||
G||0h14--------------------|0h14--------------------|0h14--------------------|0h14--------------------||
D||------------------------|------------------------|------------------------|------------------------||
A||------------------------|------------------------|------------------------|------------------------||
D||------------------------|------------------------|------------------------|------------------------||
   1  +  2  +  3  +  4  +   1  +  2  +  3  +  4  +   1  +  2  +  3  +  4  +   1  +  2  +  3  +  4  +       
Jimmy: Fig.3A (With delay)
e||------------------------|------------------------|------------------------|------------------------||
B||------------------------|------------------------|------------------------|------------------------||
G||---------12----------12-|---------12----------12-|---------12----------12-|---------12----------12-||
D||12----------12----------|12----------12----------|12----------12----------|12----------12----------||
A||------------------------|------------------------|------------------------|------------------------||
D||------------------------|------------------------|------------------------|------------------------||
   1  +  2  +  3  +  4  +   1  +  2  +  3  +  4  +   1  +  2  +  3  +  4  +   1  +  2  +  3  +  4  +       
Yannis: Fig.3 (With delay)
e||------------------------|------------------------|------------------------|------------------------||
B||------------------------|------------------------|------------------------|------------------------||
G||-----12--14------12--14-|-----12--14------12--14-|-----12--14------12--14-|-----12--14------12--14-||
D||12----------12----------|12----------12----------|12----------12----------|12----------12----------||
A||------------------------|------------------------|------------------------|------------------------||
D||------------------------|------------------------|------------------------|------------------------||
   1  +  2  +  3  +  4  +   1  +  2  +  3  +  4  +   1  +  2  +  3  +  4  +   1  +  2  +  3  +  4  +       
Jimmy: Fig.3B (With delay)
  (63)                 (64)                  (65)                 (66)
e||---------12----------12-|---------12----------12-|---------12----------12-|---------12----------12-||
B||-----13----------13-----|-----13----------13-----|-----13----------13-----|-----13----------13-----||
G||14----------14----------|14----------14----------|14----------14----------|14----------14----------||
D||------------------------|------------------------|------------------------|------------------------||
A||------------------------|------------------------|------------------------|------------------------||
D||------------------------|------------------------|------------------------|------------------------||
   1  +  2  +  3  +  4  +   1  +  2  +  3  +  4  +   1  +  2  +  3  +  4  +   1  +  2  +  3  +  4  +       

------------------------------ BREAKDOWN 2 ----------------------------------------------------
From bar 67 to 82: Jimmy Fig.5 and Yannis Fig.5. For the synth just play with the notes
from Breakdown 1.
Jimmy: Fig.5
  (67)                 (68)                  (69)                 (70)
e||------------------------|------------------------|------------------------|------------------------||
B||------------------------|------------------------|------------------------|------------------------||
G||------------------------|------------------------|------------------------|------------------------||
D||------7-----------7-----|------7-----------7-----|------14----------14----|------12----------10-//-||
A||------------------------|------------------------|------------------------|------------------------||
D||------------------------|------------------------|------------------------|------------------------||
   1  +  2  +  3  +  4  +   1  +  2  +  3  +  4  +   1  +  2  +  3  +  4  +   1  +  2  +  3  +  4  +       
Yannis: Fig.5
e||------------------------|------------------------|------------------------|------------------------||
B||------------------------|------------------------|------------------------|------------------------||
G||------------------------|------------------------|------------------------|------------------------||
D||77---77--77-------------|77---77--77-------------|77---77--77-------------|77---77--77-------------||
A||------------------------|------------------------|------------------------|------------------------||
D||------------------------|------------------------|------------------------|------------------------||

------------------------------ VERSE 2 ---------------------------------------------------
“Quiet heartbeats (Shine like millions)...”
From bar 83 to 98: Sytnh Fig.2; Jimmy Fig.2 and Yannis Fig.2

Synth: Fig.2
  (83)                 (84)                  (85)                 (86)
e||------------------------|------------------------|------------------------|------------------------||
B||------------------------|------------------------|------------------------|------------------------||
G||14--14---14-------17----|14--14---14-------17----|14--14---14-------17----|14--14---14-------17----||
D||------------------------|------------------------|------------------------|------------------------||
A||------------------------|------------------------|------------------------|------------------------||
D||------------------------|------------------------|------------------------|------------------------||
   1  +  2  +  3  +  4  +   1  +  2  +  3  +  4  +   1  +  2  +  3  +  4  +   1  +  2  +  3  +  4  +       
Jimmy: Fig.2
e||------------------------|------------------------|------------------------|------------------------||
B||------------------------|------------------------|------------------------|------------------------||
G||---------12----9--------|---------12----9--------|------------------------|------------14----------||
D||------------------10----|------------------10----|---------12----7--------|---12----12-------------||
A||12---12-----------------|12---12-----------------|10---10-----------7-----|12----12-------12p0-----||
D||------------------------|------------------------|------------------------|------------------------||
   1  +  2  +  3  +  4  +   1  +  2  +  3  +  4  +   1  +  2  +  3  +  4  +   1  +  2  +  3  +  4  +       
Yannis: Fig.2
e||------------------------|------------------------|------------------------|------------------------||
B||------------------------|------------------------|------------------------|------------------------||
G||------------------------|------------------------|------------------------|------------------------||
D||7----77--10----9--7-----|7----77--10----9--7-----|---------9p7------------|---------9p7------------||
A||------------------------|------------------------|10--1010-------8--7-----|10--1010-------8--7-----||
D||------------------------|------------------------|------------------------|------------------------||
   1  +  2  +  3  +  4  +   1  +  2  +  3  +  4  +   1  +  2  +  3  +  4  +   1  +  2  +  3  +  4  +      

------------------------------ CHORUS ----------------------------------------------------
“Oh, come on...”
From bar 99 to 102: Sytnh Fig.3; Jimmy Fig.3A and Yannis Fig.3
From bar 102 to 106: Sytnh Fig.3; Jimmy Fig.3B and Yannis Fig.3

Synth: Fig.3
  (99)                 (100)                  (101)                 (102)
e||---17-------------------|---17-------------------|---17-------------------|---17-------------------||
B||-----17-----------------|-----17-----------------|-----17-----------------|-----17-----------------||
G||0h14--------------------|0h14--------------------|0h14--------------------|0h14--------------------||
D||------------------------|------------------------|------------------------|------------------------||
A||------------------------|------------------------|------------------------|------------------------||
D||------------------------|------------------------|------------------------|------------------------||
   1  +  2  +  3  +  4  +   1  +  2  +  3  +  4  +   1  +  2  +  3  +  4  +   1  +  2  +  3  +  4  +       
Jimmy: Fig.3A (With delay)
e||------------------------|------------------------|------------------------|------------------------||
B||------------------------|------------------------|------------------------|------------------------||
G||---------12----------12-|---------12----------12-|---------12----------12-|---------12----------12-||
D||12----------12----------|12----------12----------|12----------12----------|12----------12----------||
A||------------------------|------------------------|------------------------|------------------------||
D||------------------------|------------------------|------------------------|------------------------||
   1  +  2  +  3  +  4  +   1  +  2  +  3  +  4  +   1  +  2  +  3  +  4  +   1  +  2  +  3  +  4  +       
Yannis: Fig.3 (With delay)
e||------------------------|------------------------|------------------------|------------------------||
B||------------------------|------------------------|------------------------|------------------------||
G||-----12--14------12--14-|-----12--14------12--14-|-----12--14------12--14-|-----12--14------12--14-||
D||12----------12----------|12----------12----------|12----------12----------|12----------12----------||
A||------------------------|------------------------|------------------------|------------------------||
D||------------------------|------------------------|------------------------|------------------------||
   1  +  2  +  3  +  4  +   1  +  2  +  3  +  4  +   1  +  2  +  3  +  4  +   1  +  2  +  3  +  4  +       
Jimmy: Fig.3B (With delay)
  (103)                 (104)                (105)                 (106)
e||---------12----------12-|---------12----------12-|---------12----------12-|---------12----------12-||
B||-----13----------13-----|-----13----------13-----|-----13----------13-----|-----13----------13-----||
G||14----------14----------|14----------14----------|14----------14----------|14----------14----------||
D||------------------------|------------------------|------------------------|------------------------||
A||------------------------|------------------------|------------------------|------------------------||
D||------------------------|------------------------|------------------------|------------------------||
   1  +  2  +  3  +  4  +   1  +  2  +  3  +  4  +   1  +  2  +  3  +  4  +   1  +  2  +  3  +  4  +       
-----------------------------------------------------------------------------------------
I hope you enjoy this tab.
Probably the next tabs to upload are Two Steps Twice, Heavy Water, Red Socks Pugie and
maybe Lonely Hunter. 
Cheers!

            
            
Suggest correction
Creating personal tab
Creating personal tab
You can edit any tab online and save it as your Personal.

You can edit, replace or remove any tab part or add personal notes – all changes will be seen only by you.

Personal tabs can be accessed anytime from any device, even offline.
Learn more »
Give kudos to tab author, rate the tab!
1 2 3 4 5
comments
print report bad tab
guest
You may want to rate the tab now too:
select rating
Wanna post a correction for this tab? Suggest correction