Oops, an error
Loading. Please wait.

London Thunder tab

by Foals
11,786 views 69 this week
no commentswrite comment
1 2 3 4 5
x 19
add to favorites
×
Save as Personal and add changes to this tab that will be seen only by you. Learn more ›
×
You can save this tab as Personal to edit and correct it or add notes. All changes will be seen only by you. Learn more »
launch autoscroll
font size
0
reset
how to read this tab
guitar tuner
edit
Autoscroll
slow
fast
+/-
esc
set tempo
stop
Author
Difficulty
intermediate
Band : Foals
Song : London Thunder
Album: What Went Down (2015)

Tabbed by: Kovács Márk
E-mail   : nidaleop@gmail.com

Tuning   : EADGBe (Standard)


(0:38-0:41)             

e|---------------------|
B|-9p7-----------------|
G|-----8-8--6-6-6-8----|
D|---------------------|
A|---------------------|
E|---------------------|
                      
               1x          3x          1x          3x
Main Riff: (0:55-1:05) (1:35-2:05) (2:39-2:49) (3:10-3:30)

e|--------------------|-----------9-------|-----------------------------------|
B|11--11-11-11-9------|-11--11-11----11-9-|-11--11-11-11-9----9--9-9-9--------|
G|---------------11-8-|-------------------|----------------11----------11-----|
D|--------------------|-------------------|-------------------------------13--|
A|--------------------|-------------------|-----------------------------------|
E|--------------------|-------------------|-----------------------------------|

(1:17-1:25)

e|------------------------------------|
B|-9p7-------------4s7----------------|
G|-----8-8--6-6-8-------8-6--6s8------|
D|------------------------------------|
A|------------------------------------|
E|------------------------------------|

(2:20-2:25)

(there's a piano ghost note when you slide)

e|---------------------------------------|
B|---------------------------------------|
G|--------------------------13-----------|
D|-16-13-16-13---11-11s13-----16-13-13---|
A|---------------------------------------|
E|---------------------------------------|

(2:29-2:39)

e|-21.-21.-21.---21.-21.-21.-------------|
B|---------------------------------------|
G|---------------------------------------|
D|---------------------------------------|
A|---------------------------------------|
E|---------------------------------------|


(2:49-3:10) (this part is pretty quiet)

e|-----11---11---11--9---9---7---7------------|
B|---9----9----9-------9---9---9---9----------|
G|-8------------------------------------------|  1st time
D|--------------------------------------------|
A|--------------------------------------------|
E|--------------------------------------------|


(2:49-3:10)

e|-----11---12---11--9---9---7---7------------|
B|---9----9----9-------9---9---9---9----------|
G|-8------------------------------------------|  2nd time
D|--------------------------------------------|
A|--------------------------------------------|
E|--------------------------------------------|


***********************************************

p = pull off
s = slide
. = fret pick

***********************************************

            
            
Suggest correction
Creating personal tab
Creating personal tab
You can edit any tab online and save it as your Personal.

You can edit, replace or remove any tab part or add personal notes – all changes will be seen only by you.

Personal tabs can be accessed anytime from any device, even offline.
Learn more »
comments
print report bad tab
guest
You may want to rate the tab now too:
select rating
Wanna post a correction for this tab? Suggest correction