Oops, an error
Loading. Please wait.

Milk And Black Spiders tab

version 1
version 1

Whole song

  • This is the Kexp version: https://m.youtube.com/watch?v=6jcFRUumgRk.
by Foals
1,876 views 18 this week
no commentswrite comment
1 2 3 4 5
x 3
add to favorites
×
Save as Personal and add changes to this tab that will be seen only by you. Learn more ›
×
You can save this tab as Personal to edit and correct it or add notes. All changes will be seen only by you. Learn more »
launch autoscroll
font size
0
reset
how to read this tab
guitar tuner
edit
Autoscroll
slow
fast
+/-
esc
set tempo
stop
Author
"Milk & Black Spiders" - Foals  

Jimmy's rhythm part taken from the KEXP version of this song - https://www.youtube.com/watch?v=6jcFRUumgRk

He plays these same chord patterns throughout the whole song:

        (G)                             (Bm)                (D)
e|---------------------------------------------------------------------------|
B|---------------------------------------------------------------------------|
G|-------4--------------------------------7------------------11--------------|
D|-------5--------------------------------9------------------12--------------|
A|-------5--------------------------------9------------------12--------------|
E|---------------------------------------------------------------------------|


        (G)                             (Bm)                (A)
e|---------------------------------------------------------------------------|
B|---------------------------------------------------------------------------|
G|-------4--------------------------------7------------------6---------------|
D|-------5--------------------------------9------------------7---------------|
A|-------5--------------------------------9------------------7---------------|
E|---------------------------------------------------------------------------|


[Verse]
G
Oh, I know you're still with me.
Bm     D              G     Bm  A
You my compass and my sea.
G
And I know you're still with me.
Bm     D              G     Bm  A
You my compass and my sea.
G
Oh, I hope you can hear me.
Bm      D             G     
Follows billion miles away!
    Bm   A
You stay.
G
Cause I love you dearly.
Bm      D             G      Bm  A
Follows billion miles away!

[Chorus]
      G                                         Bm                      D
Cause I've been around two times and found that you're the only thing I need!
      G                                         Bm                      A
Cause I've been around two times and found that you're the only thing I need! 


Song continues the same way throughout!







            
            
Suggest correction
Creating personal tab
Creating personal tab
You can edit any tab online and save it as your Personal.

You can edit, replace or remove any tab part or add personal notes – all changes will be seen only by you.

Personal tabs can be accessed anytime from any device, even offline.
Learn more »
Give kudos to tab author, rate the tab!
1 2 3 4 5
comments
print report bad tab
guest
You may want to rate the tab now too:
select rating
Wanna post a correction for this tab? Suggest correction