Oops, an error
Loading. Please wait.

Prelude tab

version 3
version 3

Whole song

  • Added in some guitar parts that were missing in th... Show more
  • Slightly different from original, but can be used ... Show more
by Foals
142 views 1 this week
3 commentsread comments
1 2 3 4 5
2 more votes to show rating
add to favorites
×
Save as Personal and add changes to this tab that will be seen only by you. Learn more ›
×
You can save this tab as Personal to edit and correct it or add notes. All changes will be seen only by you. Learn more »
launch autoscroll
font size
0
reset
how to read this tab
guitar tuner
edit
Autoscroll
slow
fast
+/-
esc
set tempo
stop
About this tab version
Added in some guitar parts that were missing in the other tabs with the bass tab as well and the third guitar part as it is played in the song but barely hearable. Was this info helpful? Yes No
Artist: Foals
Song: Prelude
Tuning: Drop D (DADGBe)
Tuning: Drop D (DADG)


[Intro]
[Jimmy's part]
e|-9-9-9-9-9-9-9-9-10-10-10-10-12-12-12-12-9-9-9-9-9-9-9-9-10-10-10-10-12-12-12-12|
B|--------------------------------------------------------------------------------|
G|--------------------------------------------------------------------------------|
D|--------------------------------------------------------------------------------|
A|--------------------------------------------------------------------------------|
D|--------------------------------------------------------------------------------|

e|-9-9-9-9-9-9-9-9-10-10-10-10-7-7-12-12|
B|--------------------------------------|
G|--------------------------------------|
D|--------------------------------------|
A|--------------------------------------|
D|--------------------------------------|
                        
[Verse 1]
[Jimmy's part]
e|-9-9-9-9-9-9-9-9-10-10-10-10-12-12-12-12-9-9-9-9-9-9-9-9-10-10-10-10-12-12-12-12|
B|--------------------------------------------------------------------------------|
G|--------------------------------------------------------------------------------|
D|--------------------------------------------------------------------------------|
A|--------------------------------------------------------------------------------|
D|--------------------------------------------------------------------------------|

e|-9-9-9-9-9-9-9-9-10-10-10-10-7-7-12-12|
B|--------------------------------------|
G|--------------------------------------|
D|--------------------------------------|    (repeated throughout the entire song)
A|--------------------------------------|
D|--------------------------------------|

[Yannis' part comes in at 0:35]
e|----------------------------------------------------------------------------------------------------------|
B|----------------------------------------------------------------------------------------------------------|
G|-9-----11--9-----7--9--7---9-----9--9--------9-9-----9-9-----11--9-----7--9-9--7-----9--9--------9--9-9---|
D|----9---------9---------------9--------9--9-------9-------9---------9-------------9-------9---9----------9|
A|----------------------------------------------------------------------------------------------------------|
D|----------------------------------------------------------------------------------------------------------|

e|----------------------------------------------------------------------------------------------------------|
B|----------------------------------------------------------------------------------------------------------|
G|-9--9-----9-9-----11--9-9-----7--9-9--7-----9-9-----9--9-9-----9--9-----9-9-----11--9-9-----7--9-9--7--9-9| 
D|-------9-------9-----------9-------------9-------9----------9--------9-------9-----------9----------------|
A|----------------------------------------------------------------------------------------------------------|
D|----------------------------------------------------------------------------------------------------------|

e|----------------------------------------------------------------------------------------------------------|
B|----------------------------------------------------------------------------------------------------------|
G|----11--9-9-----7--9-9--7-----9-9-----11--9-9-----7--9-9--7---9-9-----9--9-9-----9--9-9-----11--9-9-------|
D|-9-----------9-------------9-------9-----------9-------------------9----------9----------9-----------9----|
A|----------------------------------------------------------------------------------------------------------|
D|----------------------------------------------------------------------------------------------------------|

e|----------------------------------------------------------------------------------------------------------|
B|----------------------------------------------------------------------------------------------------------|
G|-7--9-9--7---9-9-----9--9-9-----9--9-9--7---9-9-----9--9-9-----9--9-9--7---9-9-----9--9-9-----9--9-9------|
D|------------------9----------9-------------------9----------9-------------------9----------9----------9---|
A|----------------------------------------------------------------------------------------------------------|
D|----------------------------------------------------------------------------------------------------------|

e|------------------------------------------|
B|------------------------------------------|
G|-9--9-----11--9-9-----9--9-9--7-----------|
D|-------9-----------9----------------------|
A|------------------------------------------|
D|------------------------------------------|

[Third guitar comes in at 1:14]
e|----------------------------------------------|
B|----------------------------------------------|
G|-9-9--12--9---9-9--12--9--9-------------------|
D|--------------------------------5-----7-------|   (x2)
A|----------------------------------------------|
D|-----------------------------5-----7----------|

[Bass]
[Andrew's part comes in at 1:23]
G|-------------------------------------------|
D|-------------------------------------------|
A|-------------------------------------------|   (x3)
D|-2-2--2--x-2-2-2--2------------------------|

G|--------------------------------------|
D|--------------------------------------|
A|--------------------------------------|          (Repeat the whole bass part until 2:23) 
D|-2-2--2--x-2-2-2--2--5--5--7--7-------|

[2:23]
G|------|  
D|------|
A|------|
D|-2----|

[Verse 2]
[Yannis' part comes in at 1:33]
e|------------------------------------------------|
B|------------------------------------------------|
G|-0--9-----0--9-----0--9--7--9-----0--9-----0--9-|
D|-------9--------9--------------9--------9-------|
A|------------------------------------------------|
D|------------------------------------------------|

e|---------------------------------------------------|
B|---------------------------------------------------|
G|-0--9-----0--9-----0--9--7--9-----0--9-----0--9/12-|
D|-------9--------9--------------9--------9----------|
A|---------------------------------------------------|
D|---------------------------------------------------|

[Chorus] 
[starts at 1:43]
[yannis' part] 
e|---------------------------------------------------------------------------------|     
B|-----------------------------------------------------------15--15--15--15--15----|      
G|-14b--12----------14b--12-----------------14b--12--------------------------------|  
D|----------14--14-----------14--14--12h14-----------14--14------------------------|    
A|---------------------------------------------------------------------------------|
D|---------------------------------------------------------------------------------|

e|---------------------------------------------------------------------------------|     
B|---------------------------------------------------------------------------------|      
G|-14b--12---------14b--12-----------------14b--12---------------------------------|  
D|----------14--14----------14--14--12h14-----------14--14--12---12~---17~---14----|    
A|---------------------------------------------------------------------------------|
D|---------------------------------------------------------------------------------|

e|------------------------------------------------|
B|------------------------------------------------|
G|-0--9-----0--9-----0--9--7--9-----0--9-----0--9-|
D|-------9--------9--------------9--------9-------|   (x3)
A|------------------------------------------------|
D|------------------------------------------------|

e|---------------------------------------------------|
B|---------------------------------------------------|
G|-0--9-----0--9-----0--9--7--9-----0--9-----0--9/12-|
D|-------9--------9--------------9--------9----------|
A|---------------------------------------------------|
D|---------------------------------------------------|

[Yannis and Jimmy's part]
e|------------------------------------------------------------------------------------|     
B|------------------------------------------------------------------------------------|      
G|-14b--12----------14b--12-----------------14b--12-----------------------------------|  
D|----------14--14-----------14--14--12h14----------14--14--12-12-17-14---------------|    
A|----------------------------------------------------------12-12-17-14---------------|
D|----------------------------------------------------------12-12-17-14---------------|

e|----------------------------------------------------------------------|
B|----------------------------------------------------------------------|
G|----------------------------------------------------------------------|
D|---2-2-x-2-x-x-2-2--5-5-7-7-------------------------------------------|   (x4)
A|---x-x-x-x-x-x-x-x--5-5-7-7-------------------------------------------|
D|---2-2-x-2-x-x-2-2--5-5-7-7-------------------------------------------|

[Bass]
[Andrew's part] 
G|--------------------------------------|
D|--------------------------------------|
A|--------------------------------------|   (x3)
D|-2-2--2--x-2-2-2--2-------------------|

G|--------------------------------------|
D|--------------------------------------|
A|--------------------------------------|          (Repeat the whole bass part until 3:33) 
D|-2-2--2--x-2-2-2--2--5--5--7--7-------|

[3:33]
G|------|  
D|------|
A|------|
D|-2----|


************************************

| b   Bend
| ~   Vibrato
| h   Hammer
| /   Slide 
| x   Dead note

************************************

            
            
Suggest correction
Creating personal tab
Creating personal tab
You can edit any tab online and save it as your Personal.

You can edit, replace or remove any tab part or add personal notes – all changes will be seen only by you.

Personal tabs can be accessed anytime from any device, even offline.
Learn more »
Give kudos to tab author, rate the tab!
1 2 3 4 5
comments
print report bad tab
3 comments total.
0 reply
ohouliscsi 271 Apr 03, 2017 08:00 AM

A genius piece more than suitable for feeding one's inner demons

+1 reply
enzo_moraes 76 Apr 05, 2017 04:20 PM

Awesome Tab!!!

0 reply
ohouliscsi 271 Apr 07, 2017 06:28 AM

Thanks man!

guest
You may want to rate the tab now too:
select rating
Wanna post a correction for this tab? Suggest correction