Oops, an error
Loading. Please wait.
We have an official Spanish Sahara tab made by UG professional guitarists. Check out the tab »
×

Spanish Sahara tab

by Foals
5,506 views 75 this week
1 commentread comment
1 2 3 4 5
x 3
add to favorites
×
Save as Personal and add changes to this tab that will be seen only by you. Learn more ›
×
You can save this tab as Personal to edit and correct it or add notes. All changes will be seen only by you. Learn more »
launch autoscroll
font size
0
reset
how to read this tab
guitar tuner
edit
Autoscroll
slow
fast
+/-
esc
set tempo
stop
This is the tab to my cover of Spanish Sahara by Foals.
This is my first Tab so it may not be perfect.

/ = slide
h = hammer on

If capo is stated, the frets are in relation to the capo.

Backing Guitar played throughout entire song (Strummed later on). No capo.
e------------------------------------------------------------------|
B------------------------------------------------------------------|
G--2---------------5---------------9---------------5-------4-------|
D--3---------------7---------------10--------------7-------5-------|
A--3---------------7---------------10--------------7-------5-------|
E------------------------------------------------------------------|

"Singing" (Verse). Capo on 2nd fret.

"So I walked into the haze..."
e-----------------------------------------------------------------------|
B-----------------------------------------------------------------------|
G--5/7-5-3-5/7-5----5-5-5-3-3h5-3----5/7-5-3-5/7-5----5-5-5-4-3h5-3-2---|
D-----------------------------------------------------------------------|
A-----------------------------------------------------------------------|
E-----------------------------------------------------------------------|

"Black rocks and shoreline sand..."
a--------------------------------------------------------------------------------------------------|
B--------------------------------------------------------------------------------------------------|
G--5/7-5-3-5/7-5----5-5-5-3-3-3h5-3----5/7-5-5-3-5-5-7-5/7----5-5-5-5-3-5-3--3-5-3-5-3--3-0-3-5-3--|
D--------------------------------------------------------------------------------------------------|
A--------------------------------------------------------------------------------------------------|
E--------------------------------------------------------------------------------------------------|

"Singing" (Chorus). Capo on 2nd fret.

"Forget the horror here..."
e-----------------------------------------------------------------|
B------------------------------------------------------------------|
G--3-3-0-3-5-3----3-3-0-3-5-3----3-0-3-5-3----0-3-5-3--0-0-3-5-3---|
D------------------------------------------------------------------|
A------------------------------------------------------------------|
E------------------------------------------------------------------|

"I'm the fury in your head..."
e---------------------------------------------------------------------------|
B---------------------------------------------------------------------------|
G--5-5-7-5-3-5/7-5----5-5-7-5-3-5/7-5----5-5-7-5-3-3-5-5-7-5----5-5-5/3-0---|
D---------------------------------------------------------------------------|
A---------------------------------------------------------------------------|
E---------------------------------------------------------------------------|

"I'm the fury in your head..." (2nd time)
e----------------------------------------------------------------------------------------------|
B----------------------------------------------------------------------------------------------|
G--5-5-7-5-3-5/7-5----5-5-7-5-3-5/7-5----5-5-7-5-3-3-5-5-7-7-7-7-7-7-7-7-7-7-5-5-5-5-5-5/3-0---|
D----------------------------------------------------------------------------------------------|
A----------------------------------------------------------------------------------------------|
E----------------------------------------------------------------------------------------------|

Solo. Capo on 2nd fret.(played 2x).
e-------------------------------------------------------------------|
B--11-11-11-10-10-10-8-8-8-4-6-3----11-11-10-10-10-8-8-8-4-6-3------|
G-------------------------------------------------------------------|
D-------------------------------------------------------------------|
A-------------------------------------------------------------------|
E-------------------------------------------------------------------|

e----------------------------------------------------------------------------|
B--11-11-10-10-10-8-8-8-10-10-10----11-11-10-10-10-11-11-10-10-10------------|
G----------------------------------------------------------------------------|
D----------------------------------------------------------------------------|
A----------------------------------------------------------------------------|
E----------------------------------------------------------------------------|

"Singing" (Chorus). Capo on 2nd fret.

"Forget the horror here..."
e-----------------------------------------------------------------------|
B-----------------------------------------------------------------------|
G--3-3-0-3-5-3----3-3-0-3-5-3----3-0-3-5-3----0-3-5-3-0-0-3-5-3-3-3-3---|
D-----------------------------------------------------------------------|
A-----------------------------------------------------------------------|
E-----------------------------------------------------------------------|

Tabbed by Ryan T

            
            
Suggest correction
Creating personal tab
Creating personal tab
You can edit any tab online and save it as your Personal.

You can edit, replace or remove any tab part or add personal notes – all changes will be seen only by you.

Personal tabs can be accessed anytime from any device, even offline.
Learn more »
Give kudos to tab author, rate the tab!
1 2 3 4 5
comments
print report bad tab
1 comment total.
0 reply
RyanT333 141 Feb 27, 2016 10:46 AM

Here is my cover if you would like to check it out: https://www.youtube.com/watch?v=mA9EzPsfjpg

guest
You may want to rate the tab now too:
select rating
Wanna post a correction for this tab? Suggest correction