Oops, an error
Loading. Please wait.

Xxxxxx tab

version 1
version 1

Whole song

Interactive

by Foals
4,865 views 1 this week
4 commentsread comments
1 2 3 4 5
x 8
add to favorites
×
Save as Personal and add changes to this tab that will be seen only by you. Learn more ›
×
You can save this tab as Personal to edit and correct it or add notes. All changes will be seen only by you. Learn more »
launch autoscroll
font size
0
reset
how to read this tab
guitar tuner
edit
Autoscroll
slow
fast
+/-
esc
set tempo
stop
Author
This is only a rough idea of some of the guitar parts played.

E|---------------------------------------------------|
B|---------17----------------------------------------|
G|----14-17------14-17-16----16-17-14----14-17-------|
D|---------------------------------------------17----|
A|---------------------------------------------------|
E|---------------------------------------------------|

^ That's repeated until the end

At 1:35 the other guitarist comes in with this:

E|------17--17--15-----------------------------------|
B|----15--15--------17-15----15-17-------15-17-------|
G|---------------------------------17----------17----|
D|---------------------------------------------------|
A|---------------------------------------------------|
E|---------------------------------------------------|

^ That's repeated until the end too

            
            
Suggest correction
Creating personal tab
Creating personal tab
You can edit any tab online and save it as your Personal.

You can edit, replace or remove any tab part or add personal notes – all changes will be seen only by you.

Personal tabs can be accessed anytime from any device, even offline.
Learn more »
comments
print report bad tab
4 comments total. Showing first comments.
0 reply
Theguitarhero10 10 Oct 21, 2008 07:24 AM

first bit doesnt sound like it at all

0 reply
Joe120693 10 May 28, 2009 04:59 AM

Well I have a way which sounds great im pretty sure its not right as it is not played on bass guitar but hey :D

G|----19-------19-19------19-19------19-19---------------------|
D|-------------------------------------------------------------|
A|-17------17----------17---------17---------------------------|
E|-------------------------------------------------------------|

Play it on a bass guitar as i mentioned,
Use a pick (Gently) it sounds better (Y)
I think this sounds pretty great it has a nice feel to it

Joex x x

0 reply
patch17 3,377 Jul 09, 2010 08:53 AM

just incase you wanted it, this is the main riff for most of the song

e|----------------------|
B|----------------------|
G|----------------------|
D|-19--19-19---19-19-19-|
A|0--00--0--000--0--0---|
E|----------------------|

it doesnt stick exactly to that, but those are the notes :)

the first part fo the tab is great, the second part isnt quite as good but still sounds pretty close :)

guest
You may want to rate the tab now too:
select rating
Wanna post a correction for this tab? Suggest correction