Oops, an error
Loading. Please wait.

No Soy Un Buen Perdedor bass

version 2
version 2

Whole song

by Fobia
114 views 1 this week
no commentswrite comment
1 2 3 4 5
3 more votes to show rating
add to favorites
×
Save as Personal and add changes to this tab that will be seen only by you. Learn more ›
×
You can save this tab as Personal to edit and correct it or add notes. All changes will be seen only by you. Learn more »
launch autoscroll
font size
0
reset
guitar tuner
edit
Autoscroll
slow
fast
+/-
esc
set tempo
stop
HOla hola hola...
pss bueno esta me la dedico a mi por
la verdad si me queda jaja...

Intro
G|-------------------------------------------------------|(X2)
D|-----------------------2-------------------------------|
A|-33-333-3---------33-3---3-3---------------------------|
E|---------00-0-11-1----------00-0-11-1-00-000-0-33-3-33-|

Verso
El amor volvió a triunfar?
G|-------------------------| (X2)
D|-------------------------|
A|-3-3-333-5-3-------------|
E|------------0-0-000-3-0--|

Que estaria pensando?
G|-------------------------|
D|----------------3-3-333--|
A|-------------------------|
E|-5-7-8-101-1-111---------|

               Yo no soy buen perdedor?
G|-------------------------------------------------------|
D|-----------------------2-------------------------------|
A|-33-333-3---------33-3---3-3---------------------------|
E|---------00-0-11-1----------00-0-11-1-00-000-0-33-3-33-|

Verso (x2)

Coro
Por que cada vez que pierdo?
G|-------------------------------------| |
D|-------------------------------------| |
A|-------------------------------------| |
E|-5-5-5555-0-0-0000-5-5-5555-0-0-0000-| |

Pienso que este juego apesta             |
G|-------------------------------------| |
D|-------------------------------------| |
A|-------------------------------------| |
E|-5-5-5555-1-1-1111-0-0-0000-3-3-3333-| |(X2)

Vuelve el intro

En el solo se toca el verso
Y ya se repite las mismas partes?
Solo pónganle el orden bien hasta el final

            
            
Suggest correction
Creating personal tab
Creating personal tab
You can edit any tab online and save it as your Personal.

You can edit, replace or remove any tab part or add personal notes – all changes will be seen only by you.

Personal tabs can be accessed anytime from any device, even offline.
Learn more »
Give kudos to tab author, rate the tab!
1 2 3 4 5
comments
print report bad tab
guest
Wanna post a correction for this tab? Suggest correction