Oops, an error
Loading. Please wait.

Fool For The City bass

version 1
version 1

Whole song

Interactive

by Foghat
4,653 views 6 this week
1 commentread comment
1 2 3 4 5
x 3
add to favorites
×
Save as Personal and add changes to this tab that will be seen only by you. Learn more ›
×
You can save this tab as Personal to edit and correct it or add notes. All changes will be seen only by you. Learn more »
launch autoscroll
font size
0
reset
guitar tuner
edit
Autoscroll
slow
fast
+/-
esc
set tempo
stop
Author
-------------------------------------------------------------------------------
			     Fool for the City - Foghat
-------------------------------------------------------------------------------
Tabbed By : R8:31b

Tuning: Standard
Intro
G|------|----------------|-----------------|-----------------|---7--------------|
D|------|----------------|-----------------|-----------------|------------------|
A|----14\7-7-7-7-7-7-7-7-|-3-3-3-3-3-3-3-3-|-----------------|-5---5-7----7-----|
E|------|----------------|-----------------|-5-5-5-5-5-5-5-5-|--------------9-7-|

G|-----------------|-----------------|-----------------|---7----9------------|
D|-----------------|-----------------|-----------------|---------------------|
A|-7-7-7-7-7-7-7-7-|-3-3-3-3-3-3-3-3-|-----------------|-5--------7///14\\\\-|
E|-----------------|-----------------|-5-5-5-5-5-5-5-5-|---------------------|

Verse (0:14, 0:55)
G|-----------------|------6---7---6--6-|-----------------|------6---7---6--6-|
D|-----------------|------p---p---p--p-|-----------------|------p---p---p--p-|
A|-7-7-x-7-7-7---7-|-7--7---7---7------|-7-7-x-7-7-7---7-|-7--7---7---7------|
E|-----------------|-s--s---s---s------|-----------------|-s--s---s---s------|

G|-----------------|------6---7---6--6-|-----------------|-------------------|
D|-----------------|------p---p---p--p-|-----------------|-------------------|
A|-7-7-x-7-7-7---7-|-7--7---7---7------|-7-7-x-7-7-7---7-|-7--7-5---4-0-2-2--|
E|-----------------|-s--s---s---s------|-----------------|-------------------|

Pre-Chorus (0:28, 1:09)
G|-----------------|-----------------|-----------------|--------------------|
D|-----------------|-----------------|-----------------|--------------------|
A|-5--5--5-5-5-5-5-|-----------------|-----------------|---------------5-6--|
E|-----------------|-5-5-5-5-5-5-5-5-\-3-3-3-3-3-3-3-5-/-7-7-7-7-7-7-7------|

Chorus (0:35, 1:16, 3:14)
G|-----------------|-----------------|-----------------|----7---------------|
D|-----------------|-----------------|----7------------|--------------------|
A|-7-7-7-7-7-7-7-7-|--x--3--3--3--3--|-----------------|-/5---5-7---7-------|
E|-----------------|-----------------|--5----5---5-5-5-|--------------9--7--|

G|-----------------|-----------------|-----------------|---7----------------|
D|-----------------|-----------------|---------7--7----|--------------12\\\-|
A|-7-7--7-7-7-6h7-7\3--3---3-3-3-3-3-|-----------------|-5-----5----7/12\\\-|
E|-----------------|-----------------|-5--5---5--5--5--|--------------------|

? 0:49)
 /_1.______________________________________________________________________
G|-----------------|---9---9---9-----|-----------------|----7----9-\-------||
D|-----------------|------------/9-9-|-----------------|-------------------o|
A|-7-7---7-7-7---7-|-7---7---7-------|-7-7----7---7-7--|-5----7-----x/x\---o|
E|-----------------|-----------------|-----------------|------------x/x\\7-||

1st Bridge (1:30)
 /_2.______________
G|-----------------|-----------------|-----------------|------------------|
D|-----------------|---9--9--9-------|-----------------|-------9---9------|
A|-----------------|-----------7-8-9-|-----------------|-9---9-------7--9-|
E|-7-7---7-7-7-7-7-|-7--7--7---------|-7-7-7-7-7-7-7-7-|---7--------------|

 /_1.________________________________/_2._____________
G|-----------------|---------------||-----------------|---------------|
D|-----9-----9-----|9--------------o|-----9-----9-----|9--------------|
A|---9-----9-----9-|----9-7--7-7-9-o|---9-----9-----9-|----9-7--7-7-7-|
E|-7-----7-----7---|--7------------||-7-----7-----7---|--7------------|

                               Interlude (1:53) w/half-time feel
G|--------------|-------------|-------------------|---6---7---9-p7-h9-|
D|--------------|-------------|-------------------|-------------------|
A|-7-7-7-7-7\\\\\\------------|-7------------4--5-|-------------------|
E|--------------|-------------|-------------------|-------------------|

G|--------------|-------------|-------------------|-----7---9----13\\\\-|
D|--------------|-------------|-------------------|--/9------/12--------|
A|-7-------4--5-|-4---2-------|--------------4--5-|---------------------|
E|--------------|-------0-3-4-|-0-----------------|---------------------|

G|---------------------------------|----------------------------------|
D|---------------------------------|----------------------------------|
A|----7-------------------4-----5--|----4---4---4---5---5---5---5-----|
E|---------------------------------|----------------------------------|

Guitar Solo (2:07)
G|-----------------|------6---7---6--6-|-----------------|------6---7---6--6-|
D|-----------------|------p---p---p--p-|-----------------|------p---p---p--p-|
A|-7-7-x-7-7-7---7-|-7--7---7---7------|-7-7-x-7-7-7---7-|-7--7---7---7------|
E|-----------------|-s--s---s---s------|-----------------|-s--s---s---s------|

G|-----------------|------6---7---6--6-|-----------------|-------------------|
D|-----------------|------p---p---p--p-|-----------------|-------------------|
A|-7-7-x-7-7-7---7-|-7--7---7---7------|-7-7-x-7-7-7---7-|-7--7-5---4-0-2-2--|
E|-----------------|-s--s---s---s------|-----------------|-------------------|

G|-----------------|-----------------|-----------------|-----------------|
D|-----------------|-----------------|-----------------|-----------------|
A|-5-5---5-5-5-5-5-|-----------------|-----------------|-------------5-6-|
E|-----------------|-5-5-5-5-5-5-5-5-|-3-3-3-3-3-3-3-5-/-7-7-7-7-7-7-----|

G|-----------------|-----------------|-----------------|----7-------------|
D|-----------------|-----------------|---7-------------|------------------|
A|-7-7-7-7-7-7-7-7-|--x--3--3--3--3--|-----------------|-/5---5-7---7-----|
E|-----------------|-----------------|-5----5---5-5-5--|--------------9-7-|

G|-----------------|-----------------|-----------------|---7---------------|
D|-----------------|-----------------|--------7---7----|-----------/12\\\\-|
A|-7-7--7-7-7-6h7-7\-3-3---3-3-3-3-3-|-----------------|-5----7---7/12\\\\-|
E|-----------------|-----------------|-5-5--5---5---5--|-------------------|

2nd Bridge (2:41)
G|-----------------|-----------------|-----------------|------------------|
D|-----------------|---9--9--9-------|-----------------|-------9---9------|
A|-----------------|-----------7-8-9-|-----------------|-9---9-------7--9-|
E|-7-7---7-7-7-7-7-|-7--7--7---------|-7-7-7-7-7-7-7-7-|---7--------------|

G|-----------------|---------------|
D|-----9-----9-----|9--------------|
A|---9-----9-----9-|----9-7--7-7-9-|
E|-7-----7-----7---|--7------------|

3rd Verse (2:52)
G|--------------|-------------|-------------------|-----7---9----13\\\\-|
D|--------------|-------------|-------------------|--/9------/12--------|
A|-7-------4--5-|-4---2-------|--------------4--5-|---------------------|
E|--------------|-------0-3-4-|-0-----------------|---------------------|

G|--------------|-------------|-------------------|-------------------|
D|--------------|-------------|-------------------|-------------------|
A|-7-------4--5-|-4---2-------|-7------------4--5-|---4-4-4-5-5-5-5---|
E|--------------|-------0-3-4-|-------------------|-------------------|

3rd Pre-Chorus (3:05)
G|-----------------|-----------------|-----------------|-----------------|----------------|
D|-----------------|-----------------|-----------------|-----------------|-----------9-9--|
A|-5-5-5-5-5-5-5-5-|-----------------|-----------------|-----------------|----------------|
E|-----------------|-5-5-5-5-5-5-5-5-|-3-3-3-3-3-3-3-5-/-7-7-7-7-7-7-7-7-|-7-7-7-7-7----7-|

Outro Chorus (3:27)
G|-----------------|-----------------|-----------------|-------7------9--||
D|-----------------|-----------------|-----------------|-----------------o|
A|-7-7---7-x-7-7-7-|-3-3---3-x-3-x-3-|-----4-4-5-5-6-7-|-5-5-5---7-7-----o|
E|-----------------|-----------------|-5-5-------------|-----------------||

G|-----------------|-----------------|-----------------|---7-7---9-9------|
D|-----------------|-----------------|-----------------|------------7-8-9-|
A|-7-7-7-7-7-7-7-7-|-3-3-3-3-3-3-3-3-|-----4-4-7-7-4-7-|-5-----7----------|
E|-----------------|-----------------|-5-5-------------|------------------|

G|-----------9---9\\\------5-------5-|-----------------|-----7---9-9---7h9-|
D|-----------------|-----------------|-----------------|------------7h9----|
A|-7-7-7-7-7---7---|-3-3-3---3-3-3---|-----4-4-7-7-4-7-|-5-5---5/----------|
E|-----------------|-----------------|-5-5-------------|-------------------|

G|-----------9---9\\\------5-------5-|-----------------|-----7---9-9---7h9-|
D|-----------------|-----------------|-----------------|------------7h9----|
A|-7-7-7-7-7---7---|-3-3-3---3-3-3---|-----4-4-7-7-4-7-|-5-5---5\----------|
E|-----------------|-----------------|-5-5-------------|-------------------|

G|-----------------|-----7----9-9---7h9-|-----------9---9\\\------5-------5-|
D|-----------------|-------------7h9----|-----------------|-----------------|
A|-----4-4-7-7-4-7-|-5-5---5\-----------|-7-7-7-7-7---7---|-3-3-3---3-3-3---|
E|-5-5-------------|--------------------|-----------------|-----------------|

G|-----------------|-----7----9-9----7h9--------|
D|-----------------|-------------7h9------------|   To Fade
A|-----4-4-7-7-4-7-|-5-5---5\-------------------|
E|-5-5-------------|----------------------------|

***************************
|-7- Slap Note
|-s-
|-6- Pop note
|-p-
| /  slide up
| \  slide down
| h  hammer-on
| p  pull-off
| ~  vibrato
| +  harmonic
| x  Mute note
===============================================================================

            
            
Suggest correction
Creating personal tab
Creating personal tab
You can edit any tab online and save it as your Personal.

You can edit, replace or remove any tab part or add personal notes – all changes will be seen only by you.

Personal tabs can be accessed anytime from any device, even offline.
Learn more »
Give kudos to tab author, rate the tab!
1 2 3 4 5
comments
print report bad tab
1 comment total.
0 reply
briancaskey 10 Nov 06, 2017 12:47 AM

good tab. needed to learn this song fast! this def helped!

guest
You may want to rate the tab now too:
select rating
Wanna post a correction for this tab? Suggest correction