Oops, an error
Loading. Please wait.

Rescue Me bass

version 3
version 3

Whole song

Interactive

2,267 views 6 this week
1 commentread comment
1 2 3 4 5
x 5
add to favorites
×
Save as Personal and add changes to this tab that will be seen only by you. Learn more ›
×
You can save this tab as Personal to edit and correct it or add notes. All changes will be seen only by you. Learn more »
launch autoscroll
font size
0
reset
guitar tuner
backing track
0:00
0:00
edit
Autoscroll
slow
fast
+/-
esc
set tempo
stop
Author
Difficulty
Rescue Me
Original recording by Fontella Bass. Written by Miner/Smith/Bass
the song released in 1965 reached number 11 in UK charts.
Bass performance by Louis Satterfield (of Earth Wind & Fire Fame)
and backing vocals by Minnie Ripperton.  Tab by bass50611
Great song, straight forward. Thought it was time this song was
tabbed in full as per the original recording.
Any comments bass254@btinternet.com

Intro:
G|---------------------------------------------------|
D|-7------7-----7-7--7-------7------7-----7-7--7-----|
A|--9-7-9---9-7----9---7-9----9-7-9---9-7----9---7-9-|
E|---------------------------------------------------|

G|---------------------------------------------|
D|-7------7-----7-7---7-------0----------------|
A|--9-7-9---9-7-----9---9-7------4---2---0---7-|
E|---------------------------------------------|

Verse:
G|-------------------------------------------------------------------|
D|-77------77----------4-7-----4-7---55------55----------------------|
A|----9-7-----9-7---55------55----------5-7-----7-5---77------77-----|
E|-------------------------------------------------------9-7-----9-7-|

G|-------------------------------------------------------------------|
D|-77------77----------4-7-----4-7---55------55----------------------|
A|----9-7-----9-7---55------55----------5-7-----7-5---77------77-----|
E|-------------------------------------------------------9-7-----9-7-|

Chorus:
G|-------------------------------------------------------------------|
D|-77------77----------4-7-----4-7---77------77----------4-7-----4-7-|
A|----9-7-----9-7---55------55----------9-7-----9-7---55------55-----|
E|-------------------------------------------------------------------|

G|-----------------------------------------------------|
D|-77------77----------4-7-----4-7---0-----------------|
A|----9-7-----9-7---55------55-----------4---2---0-----|
E|---------------------------------------------------0-|

Repeat Verse;

Repeat Chorus:

Repeat Intro:

Repeat Verse:

Repeat Chorus Several Times To Fade/End

Suggested Ending on Last Chorus line:
G|------------------|
D|-0----------------|
A|----4---2---------|
E|------------4---5-|

            
            
Suggest correction
Creating personal tab
Creating personal tab
You can edit any tab online and save it as your Personal.

You can edit, replace or remove any tab part or add personal notes – all changes will be seen only by you.

Personal tabs can be accessed anytime from any device, even offline.
Learn more »
comments
print report bad tab
1 comment total.
0 reply
dpkolody 99 Jun 15, 2014 06:17 AM

Great tab! ... and fun to play on a fretless bass with a nice "growly" tone.

guest
You may want to rate the tab now too:
select rating
Wanna post a correction for this tab? Suggest correction