Oops, an error
Loading. Please wait.
We have an official All My Life tab made by UG professional guitarists. Check out the tab »
×
2,484 views 1 this week
1 commentread comment
1 2 3 4 5
1 last vote to show rating
add to favorites
×
Save as Personal and add changes to this tab that will be seen only by you. Learn more ›
×
You can save this tab as Personal to edit and correct it or add notes. All changes will be seen only by you. Learn more »
launch autoscroll
font size
0
reset
how to read this tab
guitar tuner
backing track
0:00
0:00
edit
Autoscroll
slow
fast
+/-
esc
set tempo
stop
Author
Difficulty
This is my first tab. All the tabs I found for this song were either inaccurate or 
didn't show both guitars playing separately. I borrowed from other tabs as well as 
YouTube videos and this is what I came up with. There are some harmonics and bends 
towards the end that Shiflett plays. I didn't put these in. If you want the most 
accurate tab, buy the tab book for One by One. :)

Intro

e|-------------------------------------------------|
B|-------------------------------------------------|
G|-------------------------------------------------|
D|---555---555---555---555---555---555---555---555-| (x5) THEN
A|---555---555---555---555---555---555---555---555-|
E|---333---333---333---333---333---333---333---333-|
      PM    PM    PM    PM    PM    PM    PM    PM

e|---------------------------------------------------|
B|---------------------------------------------------|
G|---------------------------------------------------|
D|---555---555---555---555---555---555---555---555--4| (x1)
A|---555---555---555---555---555---555---555---555--4|
E|---333---333---333---333---333---333---333---333---|
      PM    PM    PM    PM    PM    PM    PM    PM
                                                                                
Verse/Main Riff

e|------------------|----------------|
B|------------------|----------------|
G|------------------|----------------| 
D|------------------|----------------|  (x4)
A|-555-55--55-557-7-|55-55--55-558-8-|   
E|-333033-033-335-5-|33033-033-336-6-|

Now, it splits into two parts for the rest of the verse - Grohl and Shifflet play 
different parts here, Shiflett plays the lead. Now, for Grohl's part you can do 
power chords A5 and Bb5 instead. You can judge whichever sounds better to you. 

Grohl

e|-------------------------------------------------|
B|-------------------------------------------------|
G|---------------5--5--------------------6--6------|\
D|-------------------------------------------------| \
A|-------------------------------------------------|  \
E|---------------5--5--------------------6--6------|   \
                                                        \
                                                         \
Shiflett                                                (x3) THEN 
                                                          /
e|-------------------------------------------------|     /
B|-------------------------------------------------|    /
G|--3---3--3--3--5--5-----3---3--3---3---6--6------|   /
D|-------------------------------------------------|  /
A|-------------------------------------------------| /
E|-3-333--3-333--5--5----3-333--3--333---6--6------|/

Grohl

e|--------------------------------------------------|
B|--------------------------------------------------|
G|---------------5--5-------------------------------|
D|----------------------------555---555---555---555-|
A|----------------------------555---555---555---555-|
E|---------------5--5---------333---333---333---333-|
                               PM    PM    PM    PM

Shiflett

e|-------------------------------------------------|
B|-------------------------------------------------|
G|--3---3--3--3--5--5------------------------------|
D|-------------------------------------------------|
A|-------------------------------------------------|
E|-3-333--3-333--5--5------------------------------|

Chorus(Grohl Only) 

e|--------------------------1----6------|
B|---4--------3--------2----1----6------|
G|--------------------------2----7------|
D|---5--------5--------3----3----8------|   (x2)
A|---6--------5--------4----3----8------|
E|--------------------------1----6------|

Now you can either let these notes ring or strum them. You can figure out the 
strumming pattern yourself. There are slight variations in the strumming pattern; 
do it however it sounds best for you.

Now you go back to the verse/main riff and play that twice. Then Chris comes in 
after the verse is played twice and you do the same thing as the first time around 
when it splits into two parts.

Chorus again 
THEN Verse/Main Riff (first part only, don't play the part where they split) x 2 
THEN


e|-------------------------------------------------|
B|-------------------------------------------------|
G|-------------------------------------------------|
D|---555---555---555---555---555---555---555---555-| (x8)
A|---555---555---555---555---555---555---555---555-|
E|---333---333---333---333---333---333---333---333-|
      PM    PM    PM    PM    PM    PM    PM    PM

e|--------------------|
B|--------------------|
G|--------------------|
D|---5555555555555555-| (x4)
A|---5555555555555555-|
E|---3333333333333333-|
These are 1/16th notes. This whole part is palm-muted as well.

e|-------------------------------------------------|
B|-------------------------------------------------|
G|-------------------------------------------------|
D|---555---555---555---555---555---555---555---555-| (x4)
A|---555---555---555---555---555---555---555---555-|
E|---333---333---333---333---333---333---333---333-|
      PM    PM    PM    PM    PM    PM    PM    PM

Chorus 

e|-------------------------------------------------|
B|-------------------------------------------------|
G|-------------------------------------------------|
D|---555---555---555---555---555---555---555---555-| (x4)
A|---555---555---555---555---555---555---555---555-|
E|---333---333---333---333---333---333---333---333-|
      PM    PM    PM    PM    PM    PM    PM    PM

End with

e|--------------|
B|--------------|
G|--------------|
D|---5-5---5-5--|
A|---5-5---5-5--|
E|---3-3---3-3--|
      PM    PM   

That's it! Hope it wasn't too confusing. Rate and comment :) Rock on!

            
            
Suggest correction
Creating personal tab
Creating personal tab
You can edit any tab online and save it as your Personal.

You can edit, replace or remove any tab part or add personal notes – all changes will be seen only by you.

Personal tabs can be accessed anytime from any device, even offline.
Learn more »
Give kudos to tab author, rate the tab!
1 2 3 4 5
comments
print report bad tab
1 comment total.
0 reply
RJrocks122 31 May 04, 2010 08:46 PM

Chorus should be:

e|--------------------------1----6------|
B|---4--------3--------1----1----6------|
G|--------------------------2----7------|
D|---5--------5--------2----3----8------|
A|---6--------5--------3----3----8------|
E|--------------------------1----6------|

guest
You may want to rate the tab now too:
select rating
Wanna post a correction for this tab? Suggest correction