Oops, an error
Loading. Please wait.
We have an official All My Life tab made by UG professional guitarists. Check out the tab »
×
46,394 views 171 this week
2 commentsread comments
1 2 3 4 5
x 24
add to favorites
×
Save as Personal and add changes to this tab that will be seen only by you. Learn more ›
×
You can save this tab as Personal to edit and correct it or add notes. All changes will be seen only by you. Learn more »
launch autoscroll
font size
0
reset
how to read this tab
guitar tuner
backing track
0:00
0:00
edit
Autoscroll
slow
fast
+/-
esc
set tempo
stop
Author
Difficulty
Song:All My Life
Artist:Foo Fighters
Album:One by One

Tabbed by Ben3296(bptrules@hotmail.com)

Standard Tuning (EADGBe)
4/4
Quite Fast - about 168bpm

Guitars 1(grohl) and 2(shiflett) are both distortion



[Intro]

guitar 1
e|--------|       |--------|
B|--------|       |--------|
G|--------|play   |--------|
D|--------|23     |------4-| 
A|55-555-5|times  |55-5554-|
E|33-333-3|       |33-333--|
  PM______         PM____*

guitar 2
e|--------|       |--------|
B|--------|       |--------|
G|--------|play   |--------|
D|--------|23     |------4-|
A|--------|times  |------4-|
E|--------|       |--------|
                         * 


guitars 1 and 2
e|----------------|----------------|----------------|----------------|
B|----------------|----------------|----------------|----------------|
G|3-3-3---3-3-----|3-3---3---5-5-5-|--3-3---3-3-----|3-3---3---6-6-6-|play
D|5-5-5---5-5-----|5-5---5---7-7-7-|--5-5---5-5-----|5-5---5---8-8-8-|2
A|5-5-5---5-5-----|5-5---5---7-7-7-|--5-5---5-5-----|5-5---5---8-8-8-|times
E|3-3-3-0-3-3---0-|3-3-0-3---5-5-5-|--3-3-0-3-3---0-|3-3-0-3---6-6-6-|


[Verse]

guitar 1
e|----------------|----------------|----------------|----------------|
B|----------------|----------------|----------------|----------------|
G|----------------|----------5-5-5-|----------------|----------6-6-6-|play
D|----------------|----------7-7-7-|----------------|----------8-8-8-|3
A|----------------|----------7-7-7-|----------------|----------8-8-8-|times
E|----------------|----------5-5-5-|----------------|----------6-6-6-|

guitar 2
e|----------------|----------------|----------------|----------------|
B|----------------|----------------|----------------|----------------|
G|----3-----3-----|3-----3---5-5-5-|----3-----3-----|3-----3---6-6-6-|play
D|----------------|----------7-7-7-|----------------|----------8-8-8-|3
A|----------------|----------7-7-7-|----------------|----------8-8-8-|times
E|--3---333-----3-|--333-----5-5-5-|--3---333-----3-|--333-----6-6-6-|
    PM  PM_     PM   PM_              PM  PM_     PM   PM_




guitar 1
e|----------------|----------------|----------------|----------------|
B|----------------|----------------|----------------|----------------|
G|----------------|----------------|----------------|----------------|
D|----------------|----------------|----------------|----------------|
A|----------------|----------------|5-5---5-5-5---5-|5-5---5-5-5-----|
E|----------------|----------------|3-3---3-3-3---3-|3-3---3-3-3-----|
                                    PM__________________________

guitar 2
e|----------------|----------------|----------------|----------------|
B|----------------|----------------|----------------|----------------|
G|----3-----3-----|3-----3-----3---|----------------|----------------|
D|----------------|----------------|----------------|----------------|
A|----------------|----------------|----------------|----------------|
E|--3---333-----3-|--333-----3-----|----------------|----------------|
    PM  PM_     PM   PM_     PM


[Chorus]

guitars 1 and 2
e|3---3-3-3-3-3-3-|3-3-3-3-3-3-3-3-|3---3-3-3-3-3-3-|3-3-3-3-3-3-3-3-|
B|4---4-4-4-4-4-4-|4-4-4-4-4-4-4-4-|3---3-3-3-3-3-3-|3-3-3-3-3-3-3-3-|
G|3---3-3-3-3-3-3-|3-3-3-3-3-3-3-3-|0---0-0-0-0-0-0-|0-0-0-0-0-0-0-0-|
D|5---5-5-5-5-5-5-|5-5-5-5-5-5-5-5-|0---0-0-0-0-0-0-|0-0-0-0-0-0-0-0-|
A|6---6-6-6-6-6-6-|6-6-6-6-6-6-6-6-|x---x-x-x-x-x-x-|x-x-x-x-x-x-x-x-|
E|3---3-3-3-3-3-3-|3-3-3-3-3-3-3-3-|3---3-3-3-3-3-3-|3-3-3-3-3-3-3-3-|

e|0---0-0-0-0-0-0-|1---1-1-1-1-1-1-|6-6-6-6-6---6-0-|
B|1---1-1-1-1-1-1-|1---1-1-1-1-1-1-|6-6-6-6-6-8-6-0-|
G|0---0-0-0-0-0-0-|2---2-2-2-2-2-2-|7-7-7-7-7-8-7-0-|play all 7
D|2---2-2-2-2-2-2-|3---3-3-3-3-3-3-|8-8-8-8-8-8-8-0-|measures 2 times
A|3---3-3-3-3-3-3-|3---3-3-3-3-3-3-|8-8-8-8-8-6-8-0-|
E|0---0-0-0-0-0-0-|1---1-1-1-1-1-1-|6-6-6-6-6---6-0-|

[Interlude]

guitars 1 and 2
e|----------------|----------------|----------------|----------------|
B|----------------|----------------|----------------|----------------|
G|3-3-3---3-3-----|3-3---3---5-5-5-|--3-3---3-3-----|3-3---3---6-6-6-|
D|5-5-5---5-5-----|5-5---5---7-7-7-|--5-5---5-5-----|5-5---5---8-8-8-|
A|5-5-5---5-5-----|5-5---5---7-7-7-|--5-5---5-5-----|5-5---5---8-8-8-|
E|3-3-3-0-3-3---0-|3-3-0-3---5-5-5-|--3-3-0-3-3---0-|3-3-0-3---6-6-6-|


[Verse]

guitar 1
e|----------------|----------------|----------------|----------------|
B|----------------|----------------|----------------|----------------|
G|----------------|----------5-5-5-|----------------|----------6-6-6-|play
D|----------------|----------7-7-7-|----------------|----------8-8-8-|3
A|----------------|----------7-7-7-|----------------|----------8-8-8-|times
E|----------------|----------5-5-5-|----------------|----------6-6-6-|

guitar 2
e|----------------|----------------|----------------|----------------|
B|----------------|----------------|----------------|----------------|
G|----3-----3-----|3-----3---5-5-5-|----3-----3-----|3-----3---6-6-6-|play
D|----------------|----------7-7-7-|----------------|----------8-8-8-|3
A|----------------|----------7-7-7-|----------------|----------8-8-8-|times
E|--3---333-----3-|--333-----5-5-5-|--3---333-----3-|--333-----6-6-6-|
    PM  PM_     PM   PM_              PM  PM_     PM   PM_




guitar 1
e|----------------|----------------|----------------|----------------|
B|----------------|----------------|----------------|----------------|
G|----------------|----------------|----------------|------------4---|
D|----------------|----------------|----------------|------------4---|
A|----------------|----------------|5-5---5-5-5---5-|5-5---5-5-5-----|
E|----------------|----------------|3-3---3-3-3---3-|3-3---3-3-3-----|
                                    PM___________________________*

guitar 2
e|----------------|----------------|----------------|----------------|
B|----------------|----------------|----------------|----------------|
G|----3-----3-----|3-----3-----3---|----------------|----------------|
D|----------------|----------------|----------------|------------4---|
A|----------------|----------------|----------------|------3-5-5-4---|
E|--3---333-----3-|--333-----3-----|----------------|------1-3-3-----|
    PM  PM_     PM   PM_     PM                              PM__*


[Chorus]

guitars 1 and 2
e|3---3-3-3-3-3-3-|3-3-3-3-3-3-3-3-|3---3-3-3-3-3-3-|3-3-3-3-3-3-3-3-|
B|4---4-4-4-4-4-4-|4-4-4-4-4-4-4-4-|3---3-3-3-3-3-3-|3-3-3-3-3-3-3-3-|
G|3---3-3-3-3-3-3-|3-3-3-3-3-3-3-3-|0---0-0-0-0-0-0-|0-0-0-0-0-0-0-0-|
D|5---5-5-5-5-5-5-|5-5-5-5-5-5-5-5-|0---0-0-0-0-0-0-|0-0-0-0-0-0-0-0-|
A|6---6-6-6-6-6-6-|6-6-6-6-6-6-6-6-|x---x-x-x-x-x-x-|x-x-x-x-x-x-x-x-|
E|3---3-3-3-3-3-3-|3-3-3-3-3-3-3-3-|3---3-3-3-3-3-3-|3-3-3-3-3-3-3-3-|

e|0---0-0-0-0-0-0-|1---1-1-1-1-1-1-|6-6-6-6-6---6-0-|
B|1---1-1-1-1-1-1-|1---1-1-1-1-1-1-|6-6-6-6-6-8-6-0-|
G|0---0-0-0-0-0-0-|2---2-2-2-2-2-2-|7-7-7-7-7-8-7-0-|play all 7
D|2---2-2-2-2-2-2-|3---3-3-3-3-3-3-|8-8-8-8-8-8-8-0-|measures 2 times
A|3---3-3-3-3-3-3-|3---3-3-3-3-3-3-|8-8-8-8-8-6-8-0-|
E|0---0-0-0-0-0-0-|1---1-1-1-1-1-1-|6-6-6-6-6---6-0-|


[Interlude]

guitars 1 and 2
e|----------------|----------------|----------------|----------------|
B|----------------|----------------|----------------|----------------|
G|3-3-3---3-3-----|3-3---3---5-5-5-|--3-3---3-3-----|3-3---3---6-6-6-|
D|5-5-5---5-5-----|5-5---5---7-7-7-|--5-5---5-5-----|5-5---5---8-8-8-|
A|5-5-5---5-5-----|5-5---5---7-7-7-|--5-5---5-5-----|5-5---5---8-8-8-|
E|3-3-3-0-3-3---0-|3-3-0-3---5-5-5-|--3-3-0-3-3---0-|3-3-0-3---6-6-6-|


[Bridge]

guitar 1
e|----------------|       |----------------|       |----------------|       |----------------| 
B|----------------|       |----------------|       |----------------|       |----------------|
G|----------------|play   |----------------|play   |----------------|play   |----------------|
D|----------------|8      |----------------|8      |----------------|23     |--------4-------|
A|5-5---5-5-5---5-|times  |5-5---5-5-5---5-|times  |5-5---5-5-5---5-|times  |5-5---5-4-------|
E|3-3---3-3-3---3-|       |3-3---3-3-3---3-|       |3-3---3-3-3---3-|       |3-3---3---------|
  PM______________         PM______________         PM______________         PM______*

guitar 2
e|----------------|       |----3-------3---|       |----------------|--------|
B|----------------|       |----3-------3---|       |3---------------|--------|
G|----------------|play   |----3-------3---|play   |5---b---7-------|--------|play
D|----------------|8      |----5-------5---|8      |----------------|--------|12
A|----------------|times  |----5-------5---|times  |----------------|--------|times
E|----------------|       |----3-------3---|       |----------------|--------|
                               *       *

[Interlude]

e|--------|       |--------|--------|
B|--------|       |--------|--------|
G|--------|play   |--------|--------|
D|55-555-5|14     |55-55555|55555555|
A|55-555-5|times  |55-55555|55555555|
E|33-333-3|       |33-33333|33333333|


[Chorus]

guitars 1 and 2
e|3---3-3-3-3-3-3-|3-3-3-3-3-3-3-3-|3---3-3-3-3-3-3-|3-3-3-3-3-3-3-3-|
B|4---4-4-4-4-4-4-|4-4-4-4-4-4-4-4-|3---3-3-3-3-3-3-|3-3-3-3-3-3-3-3-|
G|3---3-3-3-3-3-3-|3-3-3-3-3-3-3-3-|0---0-0-0-0-0-0-|0-0-0-0-0-0-0-0-|
D|5---5-5-5-5-5-5-|5-5-5-5-5-5-5-5-|0---0-0-0-0-0-0-|0-0-0-0-0-0-0-0-|
A|6---6-6-6-6-6-6-|6-6-6-6-6-6-6-6-|x---x-x-x-x-x-x-|x-x-x-x-x-x-x-x-|
E|3---3-3-3-3-3-3-|3-3-3-3-3-3-3-3-|3---3-3-3-3-3-3-|3-3-3-3-3-3-3-3-|

e|0---0-0-0-0-0-0-|1---1-1-1-1-1-1-|6-6-6-6-6---6-0-|
B|1---1-1-1-1-1-1-|1---1-1-1-1-1-1-|6-6-6-6-6-8-6-0-|
G|0---0-0-0-0-0-0-|2---2-2-2-2-2-2-|7-7-7-7-7-8-7-0-|play all 7
D|2---2-2-2-2-2-2-|3---3-3-3-3-3-3-|8-8-8-8-8-8-8-0-|measures 2 times
A|3---3-3-3-3-3-3-|3---3-3-3-3-3-3-|8-8-8-8-8-6-8-0-|
E|0---0-0-0-0-0-0-|1---1-1-1-1-1-1-|6-6-6-6-6---6-0-|

[Outro]

guitar 1
e|----------------|----------------------|----------------|----------------------|
B|----------------|----------------------|----------------|----------------------|
G|----------------|----------------------|----------------|----------------------|play
D|5-5---5-5-5---5-|5-5---5-5-5-----5-----|5-5---5-5-5---5-|5-5---5-5-5---5-5-----|2
A|5-5---5-5-5---5-|5-5---5-5-5-----5-----|5-5---5-5-5---5-|5-5---5-5-5---5-5-----|times
E|3-3---3-3-3---3-|3-3---3-3-3-----3-----|3-3---3-3-3---3-|3-3---3-3-3---3-3-----|

guitar 2
e|----------------|----------------------|----------------|----------------------|
B|11--------------|----------13----13----|11--------------|----------14----14----|
G|13b15-----------|----------15b17-15b17-|13b15-----------|----------16b18-16b18-|play
D|----------------|----------------------|----------------|----------------------|2
A|----------------|----------------------|----------------|----------------------|times
E|----------------|----------------------|----------------|----------------------|


guitar 1
e|----------------------|
B|----------------------|
G|----------------------|
D|--5-----5-------------|
A|--5-----5-------------|
E|--3-----3-------------|

guitar 2
e|----------------------|
B|--15----15------------|
G|--17b19-17b19---------|
D|----------------------|
A|----------------------|
E|----------------------|



************************************

| x  Dead note
| b  Bend
|PM  Palm mute
| *  Harmonic

************************************

            
            
Suggest correction
Creating personal tab
Creating personal tab
You can edit any tab online and save it as your Personal.

You can edit, replace or remove any tab part or add personal notes – all changes will be seen only by you.

Personal tabs can be accessed anytime from any device, even offline.
Learn more »
comments
print report bad tab
2 comments total.
+2 reply
shaundp 76 Apr 17, 2014 09:46 PM

Great tab, makes more sense to me than the other tabs here.

+1 reply
jknight726 128 Apr 19, 2015 12:52 AM

Great tab man, you're the first one to actually have the chorus tabbed correctly- thank you!

guest
You may want to rate the tab now too:
select rating
Wanna post a correction for this tab? Suggest correction