Oops, an error
Loading. Please wait.

Ballad Of The Beaconsfield Miners tab

version 2
version 2

Whole song

5,524 views 3 this week
3 commentsread comments
1 2 3 4 5
x 7
add to favorites
×
Save as Personal and add changes to this tab that will be seen only by you. Learn more ›
×
You can save this tab as Personal to edit and correct it or add notes. All changes will be seen only by you. Learn more »
launch autoscroll
font size
0
reset
how to read this tab
guitar tuner
edit
Autoscroll
slow
fast
+/-
esc
set tempo
stop
Author
Difficulty
Tabbers playing skills
intermediate ++
The Ballad of the Beaconsfield Miners     


                                 Foo Fighters
Dave Grohl - Guitar 1



     Q    Q    Q    Q     
E||----------------------|
B||----------------------|
G||----------------------|
D||----------------------|
A||----------------------|
E||----------------------|


  S  S  S S E  E  E  E  E  E   
------------------------------|
------------------------------|
----------0----0-----0-----0--|
--0h-3h-5---5-----5-----5-----|
------------------------------|
------------------------------|


  S  S  S S E  E  E  E  E  E   
------------------------------|
------------------------------|
----------0----0-----0-----0--|
--0h-3h-5---5-----5-----5-----|
------------------------------|
------------------------------|


  S  S  S S E  E  E  E  E  E   
------------------------------|
------------------------------|
----------0----0-----0-----0--|
--0h-3h-5---5-----5-----5-----|
------------------------------|
------------------------------|


  S  S  S S E  E  E  E  E  E   
------------------------------|
------------------------------|
----------0----0-----0-----0--|
--0h-3h-5---5-----5-----5-----|
------------------------------|
------------------------------|


  S  S  S S E  S S  E  E   E  E   
---------------------------------|
---------------------------------|
----------0----0-------0------0--|
--0h-7h-9---0----0h-9-----12-----|
---------------------------------|
---------------------------------|


  S  S  S S E  S S  E  E   E  E   
---------------------------------|
---------------------------------|
----------0----0-------0------0--|
--0h-7h-9---0----0h-9-----12-----|
---------------------------------|
---------------------------------|


  S  S  S S E  S S  E  E   E  E   
---------------------------------|
---------------------------------|
----------0----0-------0------0--|
--0h-5h-7---7----0h-7-----10-----|
---------------------------------|
---------------------------------|


  S  S  S S E  E  E  E  E  E   
------------------------------|
------------------------------|
----------0----0-----0-----0--|
--0h-2h-3---2-----2-----2-----|
------------------------------|
------------------------------|


  S  S  S S E  S S  E  E   E  E   
---------------------------------|
---------------------------------|
----------0----0-------0------0--|
--0h-7h-9---0----0h-9-----12-----|
---------------------------------|
---------------------------------|


  S  S  S S E  S S  E  E   E  E   
---------------------------------|
---------------------------------|
----------0----0-------0------0--|
--0h-7h-9---0----0h-9-----12-----|
---------------------------------|
---------------------------------|


  S  S  S S E  S S  E  E   E  E   
---------------------------------|
---------------------------------|
----------0----0-------0------0--|
--0h-5h-7---7----0h-7-----10-----|
---------------------------------|
---------------------------------|


  S  S  S S E  E  E  E  E  E   
------------------------------|
------------------------------|
----------0----0-----0-----0--|
--0h-2h-3---2-----2-----2-----|
------------------------------|
------------------------------|


  S  S  S S E  S S  E  E   E  E   
---------------------------------|
---------------------------------|
----------0----0-------0------0--|
--0h-7h-9---0----0h-9-----12-----|
---------------------------------|
---------------------------------|


  S  S  S S E  S S  E  E   E  E   
---------------------------------|
---------------------------------|
----------0----0-------0------0--|
--0h-7h-9---0----0h-9-----12-----|
---------------------------------|
---------------------------------|


  S  S  S S E  S S  E  E   E  E   
---------------------------------|
---------------------------------|
----------0----0-------0------0--|
--0h-5h-7---7----0h-7-----10-----|
---------------------------------|
---------------------------------|


  S  S  S S E  E  E  E  E  E   
------------------------------|
------------------------------|
----------0----0-----0-----0--|
--0h-2h-3---2-----2-----2-----|
------------------------------|
------------------------------|


  S  S  S S E  S S  E  E   E  E   
---------------------------------|
---------------------------------|
----------0----0-------0------0--|
--0h-7h-9---0----0h-9-----12-----|
---------------------------------|
---------------------------------|


  S  S  S S E  S S  E  E   E  E   
---------------------------------|
---------------------------------|
----------0----0-------0------0--|
--0h-7h-9---0----0h-9-----12-----|
---------------------------------|
---------------------------------|


  S  S  S S E  S S  E  E   E  E   
---------------------------------|
---------------------------------|
----------0----0-------0------0--|
--0h-5h-7---7----0h-7-----10-----|
---------------------------------|
---------------------------------|


  S  S  S S E  E  E  E  E  E   
------------------------------|
------------------------------|
----------0----0-----0-----0--|
--0h-2h-3---2-----2-----2-----|
------------------------------|
------------------------------|


  S  S  S S E  E  S  S  S S E  E   
----------------------------------|
----------------------------------|
----------0----0----------0----0--|
--3h-4h-5---5-----3h-4h-5---5-----|
----------------------------------|
----------------------------------|


  S  S  S S E  E  S  S  S S E  E   
----------------------------------|
----------------------------------|
----------0----0----------0----0--|
--3h-4h-5---5-----3h-4h-5---5-----|
----------------------------------|
----------------------------------|


  S  S  S S S  S  S S S  S  S S S  S  S S  
------------------------------------------|
------------------------------------------|
----------0---------0---------0---------0-|
--0h-2h-3---0h-3h-5---0h-5h-7---0h-7h-9---|
------------------------------------------|
------------------------------------------|


     NH    NH    NH    NH    NH    NH    NH  
     E     E     E     E     E     E     E  E
---------------------------------------------
---------------------------------------------
--------<>12--------<>12--------<>12--------0
--<>12--------<>12--------<>12--------<>12---
---------------------------------------------
---------------------------------------------


  S  S  S S S  S  S S S  S  S S S  S  S S  
------------------------------------------|
------------------------------------------|
----------0---------0---------0---------0-|
--0h-2h-3---0h-3h-5---0h-5h-7---0h-7h-9---|
------------------------------------------|
------------------------------------------|


     NH    NH    NH    NH    NH    NH    NH  
     E     E     E     E     E     E     E  E
---------------------------------------------
---------------------------------------------
--------<>12--------<>12--------<>12--------0
--<>12--------<>12--------<>12--------<>12---
---------------------------------------------
---------------------------------------------


  S  S  S S S  S  S S S  S  S S S  S  S S  
------------------------------------------|
------------------------------------------|
----------0---------0---------0---------0-|
--0h-2h-3---0h-3h-5---0h-5h-7---0h-7h-9---|
------------------------------------------|
------------------------------------------|


     NH    NH    NH    NH    NH    NH    NH  
     E     E     E     E     E     E     E  E
---------------------------------------------
---------------------------------------------
--------<>12--------<>12--------<>12--------0
--<>12--------<>12--------<>12--------<>12---
---------------------------------------------
---------------------------------------------


  S  S  S S S  S  S S S  S  S S S  S  S S  
------------------------------------------|
------------------------------------------|
----------0---------0---------0---------0-|
--0h-2h-3---0h-3h-5---0h-5h-7---0h-7h-9---|
------------------------------------------|
------------------------------------------|


     NH    NH    NH    NH    NH    NH    NH  
     E     E     E     E     E     E     E  E
---------------------------------------------
---------------------------------------------
--------<>12--------<>12--------<>12--------0
--<>12--------<>12--------<>12--------<>12---
---------------------------------------------
---------------------------------------------


  S  S  S S E  S S  E  E   E  E   
---------------------------------|
---------------------------------|
----------0----0-------0------0--|
--0h-7h-9---0----0h-9-----12-----|
---------------------------------|
---------------------------------|


  S  S  S S E  S S  E  E   E  E   
---------------------------------|
---------------------------------|
----------0----0-------0------0--|
--0h-7h-9---0----0h-9-----12-----|
---------------------------------|
---------------------------------|


  S  S  S S E  S S  E  E   E  E   
---------------------------------|
---------------------------------|
----------0----0-------0------0--|
--0h-5h-7---7----0h-7-----10-----|
---------------------------------|
---------------------------------|


  S  S  S S E  E  E  E  E  E   
------------------------------|
------------------------------|
----------0----0-----0-----0--|
--0h-2h-3---2-----2-----2-----|
------------------------------|
------------------------------|


  S  S  S S E  S S  E  E   E  E   
---------------------------------|
---------------------------------|
----------0----0-------0------0--|
--0h-7h-9---0----0h-9-----12-----|
---------------------------------|
---------------------------------|


  S  S  S S E  S S  E  E   E  E   
---------------------------------|
---------------------------------|
----------0----0-------0------0--|
--0h-7h-9---0----0h-9-----12-----|
---------------------------------|
---------------------------------|


  S  S  S S E  S S  E  E   E  E   
---------------------------------|
---------------------------------|
----------0----0-------0------0--|
--0h-5h-7---7----0h-7-----10-----|
---------------------------------|
---------------------------------|


  S  S  S S E  E  E  E  E  E   
------------------------------|
------------------------------|
----------0----0-----0-----0--|
--0h-2h-3---2-----2-----2-----|
------------------------------|
------------------------------|


  S  S  S S E  S S  E  E   E  E   
---------------------------------|
---------------------------------|
----------0----0-------0------0--|
--0h-7h-9---0----0h-9-----12-----|
---------------------------------|
---------------------------------|


  S  S  S S E  S S  E  E   E  E   
---------------------------------|
---------------------------------|
----------0----0-------0------0--|
--0h-7h-9---0----0h-9-----12-----|
---------------------------------|
---------------------------------|


  S  S  S S E  S S  E  E   E  E   
---------------------------------|
---------------------------------|
----------0----0-------0------0--|
--0h-5h-7---7----0h-7-----10-----|
---------------------------------|
---------------------------------|


  S  S  S S E  E  E  E  E  E   
------------------------------|
------------------------------|
----------0----0-----0-----0--|
--0h-2h-3---2-----2-----2-----|
------------------------------|
------------------------------|


  S  S  S S E  S S  E  E   E  E   
---------------------------------|
---------------------------------|
----------0----0-------0------0--|
--0h-7h-9---0----0h-9-----12-----|
---------------------------------|
---------------------------------|


  S  S  S S E  S S  E  E   E  E   
---------------------------------|
---------------------------------|
----------0----0-------0------0--|
--0h-7h-9---0----0h-9-----12-----|
---------------------------------|
---------------------------------|


  S  S  S S E  S S  E  E   E  E   
---------------------------------|
---------------------------------|
----------0----0-------0------0--|
--0h-5h-7---7----0h-7-----10-----|
---------------------------------|
---------------------------------|


  S  S  S S E  E  E  E  E  E   
------------------------------|
------------------------------|
----------0----0-----0-----0--|
--0h-2h-3---2-----2-----2-----|
------------------------------|
------------------------------|


  S  S  S S E  E  S  S  S S E  E   
----------------------------------|
----------------------------------|
----------0----0----------0----0--|
--3h-4h-5---5-----3h-4h-5---5-----|
----------------------------------|
----------------------------------|


  S  S  S S E  E  S  S  S S E  E   
----------------------------------|
----------------------------------|
----------0----0----------0----0--|
--3h-4h-5---5-----3h-4h-5---5-----|
----------------------------------|
----------------------------------|


  S  S  S S S  S  S S S  S  S S S  S  S S  
------------------------------------------|
------------------------------------------|
----------0---------0---------0---------0-|
--0h-2h-3---0h-3h-5---0h-5h-7---0h-7h-9---|
------------------------------------------|
------------------------------------------|


     NH    NH    NH    NH    NH    NH    NH  
     E     E     E     E     E     E     E  E
---------------------------------------------
---------------------------------------------
--------<>12--------<>12--------<>12--------0
--<>12--------<>12--------<>12--------<>12---
---------------------------------------------
---------------------------------------------


  S  S  S S S  S  S S S  S  S S S  S  S S  
------------------------------------------|
------------------------------------------|
----------0---------0---------0---------0-|
--0h-2h-3---0h-3h-5---0h-5h-7---0h-7h-9---|
------------------------------------------|
------------------------------------------|


     NH    NH    NH    NH    NH    NH    NH  
     E     E     E     E     E     E     E  E
---------------------------------------------
---------------------------------------------
--------<>12--------<>12--------<>12--------0
--<>12--------<>12--------<>12--------<>12---
---------------------------------------------
---------------------------------------------


  S  S  S S S  S  S S S  S  S S S  S  S S  
------------------------------------------|
------------------------------------------|
----------0---------0---------0---------0-|
--0h-2h-3---0h-3h-5---0h-5h-7---0h-7h-9---|
------------------------------------------|
------------------------------------------|


     NH    NH    NH    NH    NH    NH    NH  
     E     E     E     E     E     E     E  E
---------------------------------------------
---------------------------------------------
--------<>12--------<>12--------<>12--------0
--<>12--------<>12--------<>12--------<>12---
---------------------------------------------
---------------------------------------------


  S  S  S S S  S  S S S  S  S S S  S  S S  
------------------------------------------|
------------------------------------------|
----------0---------0---------0---------0-|
--0h-2h-3---0h-3h-5---0h-5h-7---0h-7h-9---|
------------------------------------------|
------------------------------------------|


     NH    NH                    
     E     E  E  E  E  E  E  E   
--------------------------------|
--------------------------------|
--------<>12-----0-----0-----0--|
--<>12--------0-----0-----0-----|
--------------------------------|
--------------------------------|


  S  S  S S E  E   E   E   E  E   
---------------------------------|
---------------------------------|
----------0----0--------------0--|
--0h-7h-9---9-----12--11--12-----|
---------------------------------|
---------------------------------|


  S  S  S S E  E   E   E  E  E   
--------------------------------|
--------------------------------|
----------0----0-------------0--|
--0h-7h-9---9-----12--11--9-----|
--------------------------------|
--------------------------------|


  S  S  S S E  E   E   E   E  E   
---------------------------------|
---------------------------------|
----------0----0--------------0--|
--0h-7h-9---9-----12--11--12-----|
---------------------------------|
---------------------------------|


  S  S  S S E  E   E   E  E  E   
--------------------------------|
--------------------------------|
----------0----0-------------0--|
--0h-7h-9---9-----12--11--9-----|
--------------------------------|
--------------------------------|


  S  S  S S E  E  S  S  S S E  E   
----------------------------------|
----------------------------------|
----------0----0----------0----0--|
--0h-7h-9---9-----0h-7h-9---9-----|
----------------------------------|
----------------------------------|


  S  S  S S E  E  S  S  S S E  E   
----------------------------------|
----------------------------------|
----------0----0----------0----0--|
--0h-7h-9---9-----0h-7h-9---9-----|
----------------------------------|
----------------------------------|


  S  S  S S E  E   E   E   E  E   
---------------------------------|
---------------------------------|
----------0----0--------------0--|
--0h-7h-9---9-----12--11--12-----|
---------------------------------|
---------------------------------|


  S  S  S S E  E   E   E  E  E   
--------------------------------|
--------------------------------|
----------0----0-------------0--|
--0h-7h-9---9-----12--11--9-----|
--------------------------------|
--------------------------------|


  S  S  S S E  E   E   E   E  E   
---------------------------------|
---------------------------------|
----------0----0--------------0--|
--0h-7h-9---9-----12--11--12-----|
---------------------------------|
---------------------------------|


  S  S  S S E  E   E   E  E  E   
--------------------------------|
--------------------------------|
----------0----0-------------0--|
--0h-7h-9---9-----12--11--9-----|
--------------------------------|
--------------------------------|


  S  S  S S E  E  S  S  S S E  E   
----------------------------------|
----------------------------------|
----------0----0----------0----0--|
--0h-7h-9---9-----0h-7h-9---9-----|
----------------------------------|
----------------------------------|


  S  S  S S E  E  S  S  S S E  E   
----------------------------------|
----------------------------------|
----------0----0----------0----0--|
--0h-7h-9---9-----0h-7h-9---9-----|
----------------------------------|
----------------------------------|


  S  S  S S E  E  S  S  S S E  E   
----------------------------------|
----------------------------------|
----------0----0----------0----0--|
--0h-7h-9---9-----0h-7h-9---9-----|
----------------------------------|
----------------------------------|


  S  S  S S E  E  S  S  S S E  E   
----------------------------------|
----------------------------------|
----------0----0----------0----0--|
--0h-7h-9---9-----0h-7h-9---9-----|
----------------------------------|
----------------------------------|


  S  S  S S E  E  S  S  S S E  E   
----------------------------------|
----------------------------------|
----------0----0----------0----0--|
--0h-7h-9---9-----0h-7h-9---9-----|
----------------------------------|
----------------------------------|


  S  S  S S E  E  S  S  S S E  E   
----------------------------------|
----------------------------------|
----------0----0----------0----0--|
--0h-7h-9---9-----0h-7h-9---9-----|
----------------------------------|
----------------------------------|


  S  S  S S E  E  S  S  S S E  E   
----------------------------------|
----------------------------------|
----------0----0----------0----0--|
--0h-7h-9---9-----0h-7h-9---9-----|
----------------------------------|
----------------------------------|


  S  S  S S E  E  S  S  S S E  E   
----------------------------------|
----------------------------------|
----------0----0----------0----0--|
--0h-7h-9---9-----0h-7h-9---9-----|
----------------------------------|
----------------------------------|


  ^                                     
  W                   W                 
-------------------|-------------------|
--8----------------|--L----------------|
--0----------------|--L----------------|
--8----------------|--L----------------|
--7----------------|--L----------------|
--8----------------|--L----------------|


  H             E  E  H         
-----------|-------------------|
--L--------|-------5--L--------|
--L--------|-------------------|
--L--------|--2g5--------------|
--L--------|-------------------|
--L--------|-------------------|


    E  E  H             E  E  H         
-------------------|-------------------|
-------6--L--------|-------8--L--------|
-------------------|-------------------|
--5g7--------------|--7g8--------------|
-------------------|-------------------|
-------------------|-------------------|


     E   E  H.            
-------------------------|
--------10--L------------|
-------------------------|
--8g10-------------------|
-------------------------|
-------------------------|


  ^                                     
  W                   W                 
--3----------------|--L----------------|
--3----------------|--L----------------|
--0----------------|--L----------------|
--0----------------|--L----------------|
--2----------------|--L----------------|
--3----------------|--L----------------|


  W                   W                  
--L----------------|--L----------------||
--L----------------|--L----------------||
--L----------------|--L----------------||
--L----------------|--L----------------||
--L----------------|--L----------------||
--L----------------|--L----------------||




Kaki King - Guitar 2



E||-------|
B||-------|
G||-------|
D||-------|
A||-------|
E||-------|


  S  S   S S  E  E   E  E   E  E   
----------------------------------|
----------------------------------|
------------------------0---------|
-----------0-----0-------------0--|
--0h-8h-10---10-----10-----10-----|
----------------------------------|


  S  S   S S  E  E   E  E   E  E   
----------------------------------|
----------------------------------|
------------------------0---------|
-----------0-----0-------------0--|
--0h-8h-10---10-----10-----10-----|
----------------------------------|


  S  S   S S  E  E   E  E   E  E   
----------------------------------|
----------------------------------|
------------------------0---------|
-----------0-----0-------------0--|
--0h-8h-10---10-----10-----10-----|
----------------------------------|


  S  S   S S  E  E   E  E   E  E   
----------------------------------|
----------------------------------|
------------------------0---------|
-----------0-----0-------------0--|
--0h-8h-10---10-----10-----10-----|
----------------------------------|


  S  S   S S  E  S  S  E  E   E  E   
------------------------------------|
------------------------------------|
--------------------------0---------|
-----------0-----9p-0------------0--|
--0h-8h-10---10-------10-----14-----|
------------------------------------|


  S  S   S S  E  S  S  E  E   E  E   
------------------------------------|
------------------------------------|
--------------------------0---------|
-----------0-----9p-0------------0--|
--0h-8h-10---10-------10-----14-----|
------------------------------------|


  S  S  S S E  S  S E  E   E  E   
---------------------------------|
---------------------------------|
-----------------------0---------|
----------0----7p-0-----------0--|
--0h-7h-8---8-------8-----12-----|
---------------------------------|


  S  S  S S E  S  S E  E  E  E   
--------------------------------|
--------------------------------|
-----------------------0--------|
----------0----2p-0----------0--|
--0h-2h-3---3-------3-----7-----|
--------------------------------|


  S  S   S S  E  S  S  E  E   E  E   
------------------------------------|
------------------------------------|
--------------------------0---------|
-----------0-----9p-0------------0--|
--0h-8h-10---10-------10-----14-----|
------------------------------------|


  S  S   S S  E  S  S  E  E   E  E   
------------------------------------|
------------------------------------|
--------------------------0---------|
-----------0-----9p-0------------0--|
--0h-8h-10---10-------10-----14-----|
------------------------------------|


  S  S  S S E  S  S E  E   E  E   
---------------------------------|
---------------------------------|
-----------------------0---------|
----------0----7p-0-----------0--|
--0h-7h-8---8-------8-----12-----|
---------------------------------|


  S  S  S S E  S  S E  E  E  E   
--------------------------------|
--------------------------------|
-----------------------0--------|
----------0----2p-0----------0--|
--0h-2h-3---3-------3-----7-----|
--------------------------------|


  S  S   S S  E  S  S  E  E   E  E   
------------------------------------|
------------------------------------|
--------------------------0---------|
-----------0-----9p-0------------0--|
--0h-8h-10---10-------10-----14-----|
------------------------------------|


  S  S   S S  E  S  S  E  E   E  E   
------------------------------------|
------------------------------------|
--------------------------0---------|
-----------0-----9p-0------------0--|
--0h-8h-10---10-------10-----14-----|
------------------------------------|


  S  S  S S E  S  S E  E   E  E   
---------------------------------|
---------------------------------|
-----------------------0---------|
----------0----7p-0-----------0--|
--0h-7h-8---8-------8-----12-----|
---------------------------------|


  S  S  S S E  S  S E  E  E  E   
--------------------------------|
--------------------------------|
-----------------------0--------|
----------0----2p-0----------0--|
--0h-2h-3---3-------3-----7-----|
--------------------------------|


  S  S   S S  E  S  S  E  E   E  E   
------------------------------------|
------------------------------------|
--------------------------0---------|
-----------0-----9p-0------------0--|
--0h-8h-10---10-------10-----14-----|
------------------------------------|


  S  S   S S  E  S  S  E  E   E  E   
------------------------------------|
------------------------------------|
--------------------------0---------|
-----------0-----9p-0------------0--|
--0h-8h-10---10-------10-----14-----|
------------------------------------|


  S  S  S S E  S  S E  E   E  E   
---------------------------------|
---------------------------------|
-----------------------0---------|
----------0----7p-0-----------0--|
--0h-7h-8---8-------8-----12-----|
---------------------------------|


  S  S  S S E  S  S E  E  E  E   
--------------------------------|
--------------------------------|
-----------------------0--------|
----------0----2p-0----------0--|
--0h-2h-3---3-------3-----7-----|
--------------------------------|


  S  S  S S E  E  S  S  S S E  E   
----------------------------------|
----------------------------------|
---------------0---------------0--|
----------0---------------0-------|
--0h-1h-2---2-----0h-1h-2---2-----|
----------------------------------|


  S  S  S S E  E  S  S  S S E  E   
----------------------------------|
----------------------------------|
---------------0---------------0--|
----------0---------------0-------|
--0h-1h-2---2-----0h-1h-2---2-----|
----------------------------------|


  S  S  S S S  S  S S S  S  S S S  S  S S  
------------------------------------------|
------------------------------------------|
------------------------------------------|
----------0---------0---------0---------0-|
------------------------------------------|
--0h-1h-3---0h-3h-5---0h-5h-7---0h-3h-5---|


  S  S  S S E  E  E  E  E  E   
------------------------------|
------------------------------|
---------------0--------------|
----------0----------0-----0--|
------------------------------|
--0h-1h-3---3-----3-----3-----|


  S  S  S S S  S  S S S  S  S S S  S  S S  
------------------------------------------|
------------------------------------------|
------------------------------------------|
----------0---------0---------0---------0-|
------------------------------------------|
--0h-1h-3---0h-3h-5---0h-5h-7---0h-3h-5---|


  S  S  S S E  E  E  E  E  E   
------------------------------|
------------------------------|
---------------0--------------|
----------0----------0-----0--|
------------------------------|
--0h-1h-3---3-----3-----3-----|


  S  S  S S S  S  S S S  S  S S S  S  S S  
------------------------------------------|
------------------------------------------|
------------------------------------------|
----------0---------0---------0---------0-|
------------------------------------------|
--0h-1h-3---0h-3h-5---0h-5h-7---0h-3h-5---|


  S  S  S S E  E  E  E  E  E   
------------------------------|
------------------------------|
---------------0--------------|
----------0----------0-----0--|
------------------------------|
--0h-1h-3---3-----3-----3-----|


  S  S  S S S  S  S S S  S  S S S  S  S S  
------------------------------------------|
------------------------------------------|
------------------------------------------|
----------0---------0---------0---------0-|
------------------------------------------|
--0h-1h-3---0h-3h-5---0h-5h-7---0h-3h-5---|


  S  S  S S E  E  E  E  E  E   
------------------------------|
------------------------------|
---------------0--------------|
----------0----------0-----0--|
------------------------------|
--0h-1h-3---3-----3-----3-----|


  S  S   S S  E  S  S  E  E   E  E   
------------------------------------|
------------------------------------|
--------------------------0---------|
-----------0-----9p-0------------0--|
--0h-8h-10---10-------10-----14-----|
------------------------------------|


  S  S   S S  E  S  S  E  E   E  E   
------------------------------------|
------------------------------------|
--------------------------0---------|
-----------0-----9p-0------------0--|
--0h-8h-10---10-------10-----14-----|
------------------------------------|


  S  S  S S E  S  S E  E   E  E   
---------------------------------|
---------------------------------|
-----------------------0---------|
----------0----7p-0-----------0--|
--0h-7h-8---8-------8-----12-----|
---------------------------------|


  S  S  S S E  S  S E  E  E  E   
--------------------------------|
--------------------------------|
-----------------------0--------|
----------0----2p-0----------0--|
--0h-2h-3---3-------3-----7-----|
--------------------------------|


  S  S   S S  E  S  S  E  E   E  E   
------------------------------------|
------------------------------------|
--------------------------0---------|
-----------0-----9p-0------------0--|
--0h-8h-10---10-------10-----14-----|
------------------------------------|


  S  S   S S  E  S  S  E  E   E  E   
------------------------------------|
------------------------------------|
--------------------------0---------|
-----------0-----9p-0------------0--|
--0h-8h-10---10-------10-----14-----|
------------------------------------|


  S  S  S S E  S  S E  E   E  E   
---------------------------------|
---------------------------------|
-----------------------0---------|
----------0----7p-0-----------0--|
--0h-7h-8---8-------8-----12-----|
---------------------------------|


  S  S  S S E  S  S E  E  E  E   
--------------------------------|
--------------------------------|
-----------------------0--------|
----------0----2p-0----------0--|
--0h-2h-3---3-------3-----7-----|
--------------------------------|


  S  S   S S  E  S  S  E  E   E  E   
------------------------------------|
------------------------------------|
--------------------------0---------|
-----------0-----9p-0------------0--|
--0h-8h-10---10-------10-----14-----|
------------------------------------|


  S  S   S S  E  S  S  E  E   E  E   
------------------------------------|
------------------------------------|
--------------------------0---------|
-----------0-----9p-0------------0--|
--0h-8h-10---10-------10-----14-----|
------------------------------------|


  S  S  S S E  S  S E  E   E  E   
---------------------------------|
---------------------------------|
-----------------------0---------|
----------0----7p-0-----------0--|
--0h-7h-8---8-------8-----12-----|
---------------------------------|


  S  S  S S E  S  S E  E  E  E   
--------------------------------|
--------------------------------|
-----------------------0--------|
----------0----2p-0----------0--|
--0h-2h-3---3-------3-----7-----|
--------------------------------|


  S  S   S S  E  S  S  E  E   E  E   
------------------------------------|
------------------------------------|
--------------------------0---------|
-----------0-----9p-0------------0--|
--0h-8h-10---10-------10-----14-----|
------------------------------------|


  S  S   S S  E  S  S  E  E   E  E   
------------------------------------|
------------------------------------|
--------------------------0---------|
-----------0-----9p-0------------0--|
--0h-8h-10---10-------10-----14-----|
------------------------------------|


  S  S  S S E  S  S E  E   E  E   
---------------------------------|
---------------------------------|
-----------------------0---------|
----------0----7p-0-----------0--|
--0h-7h-8---8-------8-----12-----|
---------------------------------|


  S  S  S S E  S  S E  E  E  E   
--------------------------------|
--------------------------------|
-----------------------0--------|
----------0----2p-0----------0--|
--0h-2h-3---3-------3-----7-----|
--------------------------------|


  S  S  S S E  E  S  S  S S E  E   
----------------------------------|
----------------------------------|
---------------0---------------0--|
----------0---------------0-------|
--0h-1h-2---2-----0h-1h-2---2-----|
----------------------------------|


  S  S  S S E  E  S  S  S S E  E   
----------------------------------|
----------------------------------|
---------------0---------------0--|
----------0---------------0-------|
--0h-1h-2---2-----0h-1h-2---2-----|
----------------------------------|


  S  S  S S S  S  S S S  S  S S S  S  S S  
------------------------------------------|
------------------------------------------|
------------------------------------------|
----------0---------0---------0---------0-|
------------------------------------------|
--0h-1h-3---0h-3h-5---0h-5h-7---0h-3h-5---|


  S  S  S S E  E  E  E  E  E   
------------------------------|
------------------------------|
---------------0--------------|
----------0----------0-----0--|
------------------------------|
--0h-1h-3---3-----3-----3-----|


  S  S  S S S  S  S S S  S  S S S  S  S S  
------------------------------------------|
------------------------------------------|
------------------------------------------|
----------0---------0---------0---------0-|
------------------------------------------|
--0h-1h-3---0h-3h-5---0h-5h-7---0h-3h-5---|


  S  S  S S E  E  E  E  E  E   
------------------------------|
------------------------------|
---------------0--------------|
----------0----------0-----0--|
------------------------------|
--0h-1h-3---3-----3-----3-----|


  S  S  S S S  S  S S S  S  S S S  S  S S  
------------------------------------------|
------------------------------------------|
------------------------------------------|
----------0---------0---------0---------0-|
------------------------------------------|
--0h-1h-3---0h-3h-5---0h-5h-7---0h-3h-5---|


  S  S  S S E  E  E  E  E  E   
------------------------------|
------------------------------|
---------------0--------------|
----------0----------0-----0--|
------------------------------|
--0h-1h-3---3-----3-----3-----|


  S  S  S S S  S  S S S  S  S S S  S  S S  
------------------------------------------|
------------------------------------------|
------------------------------------------|
----------0---------0---------0---------0-|
------------------------------------------|
--0h-1h-3---0h-3h-5---0h-5h-7---0h-3h-5---|


  S  S  S S E  E  E  E  E  E   
------------------------------|
------------------------------|
---------------0--------------|
----------0----------0-----0--|
------------------------------|
--0h-1h-3---3-----3-----3-----|


  S  S   S S  E  E   E   E   E  E   
-----------------------------------|
-----------------------------------|
-----------------0--------------0--|
-----------0-----------------------|
--0h-8h-10---10-----14--13--14-----|
-----------------------------------|


  S  S   S S  E  E   E   E   E  E   
-----------------------------------|
-----------------------------------|
-----------------0--------------0--|
-----------0-----------------------|
--0h-8h-10---10-----14--13--10-----|
-----------------------------------|


  S  S   S S  E  E   E   E   E  E   
-----------------------------------|
-----------------------------------|
-----------------0--------------0--|
-----------0-----------------------|
--0h-8h-10---10-----14--13--14-----|
-----------------------------------|


  S  S   S S  E  E   E   E   E  E   
-----------------------------------|
-----------------------------------|
-----------------0--------------0--|
-----------0-----------------------|
--0h-8h-10---10-----14--13--10-----|
-----------------------------------|


  S  S   S S  E  E  S  S   S S  E  E   
--------------------------------------|
--------------------------------------|
-----------------0-----------------0--|
-----------0-----------------0--------|
--0h-8h-10---10-----0h-8h-10---10-----|
--------------------------------------|


  S  S   S S  E  E  S  S   S S  E  E   
--------------------------------------|
--------------------------------------|
-----------------0-----------------0--|
-----------0-----------------0--------|
--0h-8h-10---10-----0h-8h-10---10-----|
--------------------------------------|


  S  S   S S  E  E   E   E   E  E   
-----------------------------------|
-----------------------------------|
-----------------0--------------0--|
-----------0-----------------------|
--0h-8h-10---10-----14--13--14-----|
-----------------------------------|


  S  S   S S  E  E   E   E   E  E   
-----------------------------------|
-----------------------------------|
-----------------0--------------0--|
-----------0-----------------------|
--0h-8h-10---10-----14--13--10-----|
-----------------------------------|


  S  S   S S  E  E   E   E   E  E   
-----------------------------------|
-----------------------------------|
-----------------0--------------0--|
-----------0-----------------------|
--0h-8h-10---10-----14--13--14-----|
-----------------------------------|


  S  S   S S  E  E   E   E   E  E   
-----------------------------------|
-----------------------------------|
-----------------0--------------0--|
-----------0-----------------------|
--0h-8h-10---10-----14--13--10-----|
-----------------------------------|


  S  S   S S  E  E  S  S   S S  E  E   
--------------------------------------|
--------------------------------------|
-----------------0-----------------0--|
-----------0-----------------0--------|
--0h-8h-10---10-----0h-8h-10---10-----|
--------------------------------------|


  S  S   S S  E  E  S  S   S S  E  E   
--------------------------------------|
--------------------------------------|
-----------------0-----------------0--|
-----------0-----------------0--------|
--0h-8h-10---10-----0h-8h-10---10-----|
--------------------------------------|


  S  S   S S  E  E  S  S   S S  E  E   
--------------------------------------|
--------------------------------------|
-----------------0-----------------0--|
-----------0-----------------0--------|
--0h-8h-10---10-----0h-8h-10---10-----|
--------------------------------------|


  S  S   S S  E  E  S  S   S S  E  E   
--------------------------------------|
--------------------------------------|
-----------------0-----------------0--|
-----------0-----------------0--------|
--0h-8h-10---10-----0h-8h-10---10-----|
--------------------------------------|


  S  S   S S  E  E  S  S   S S  E  E   
--------------------------------------|
--------------------------------------|
-----------------0-----------------0--|
-----------0-----------------0--------|
--0h-8h-10---10-----0h-8h-10---10-----|
--------------------------------------|


  S  S   S S  E  E  S  S   S S  E  E   
--------------------------------------|
--------------------------------------|
-----------------0-----------------0--|
-----------0-----------------0--------|
--0h-8h-10---10-----0h-8h-10---10-----|
--------------------------------------|


  S  S   S S  E  E  S  S   S S  E  E   
--------------------------------------|
--------------------------------------|
-----------------0-----------------0--|
-----------0-----------------0--------|
--0h-8h-10---10-----0h-8h-10---10-----|
--------------------------------------|


  S  S   S S  E  E  S  S   S S  E  E   
--------------------------------------|
--------------------------------------|
-----------------0-----------------0--|
-----------0-----------------0--------|
--0h-8h-10---10-----0h-8h-10---10-----|
--------------------------------------|


  Q    E  E  Q    E   S  S   
----------------------------|
----------------------------|
-------------2--------------|
-------2--3-------3p--2p-0h-|
----------------------------|
----------------------------|


  E   E  E  E   E   E  Q        H         
-----------------------------|-----------|
-----------------------------|-----------|
---------0-------------------|-----------|
--2h--3-----2p--0h--2--L~----|--L--------|
-----------------------------|-----------|
-----------------------------|-----------|


  Q.     E  E  E      Q     E   E  Q     
------------8--L/--|-----------10--L----|
---------8---------|-------10-----------|
-------------------|--------------------|
-------------------|--------------------|
-------------------|--------------------|
-------------------|--------------------|


  Q     E   E  Q     
-----------12--L----|
-------11-----------|
--------------------|
--------------------|
--------------------|
--------------------|


  Q     E   E  H         
-----------13--L--------|
-------13---------------|
------------------------|
------------------------|
------------------------|
------------------------|


          NH               
  Q       Q     Q    Q     
---------------15----L----|
-------<>12---------------|
--------------------------|
--------------------------|
--------------------------|
--------------------------|


  W                   W                 
--L----------------|--L----------------|
-------------------|-------------------|
-------------------|-------------------|
-------------------|-------------------|
-------------------|-------------------|
-------------------|-------------------|


  W                  
--L----------------||
-------------------||
-------------------||
-------------------||
-------------------||
-------------------||




Duration Legend
---------------
W - whole
H - half
Q - quarter
E - 8th
S - 16th
T - 32nd
X - 64th
. - note dotted
|-n-|  - n-tuplets


Tablature Legend
----------------
L - tied note
x - dead note
g - grace note
(n) - ghost note
> - accentuded note
NH - natural harmonic
AH - artificial harmonic
TH - tapped harmonic
SH - semi harmonic
PH - pitch harmonic
h - hammer on
p - pull off
b - bend
br - bendRelease
pb - preBend
pbr - preBendRelease
brb - bendReleaseBend
\n/ - tremolo bar dip
\n - tremolo bar dive
-/n - tremolo bar Release up
/n\ - tremolo bar inverted dip
/n - tremolo bar return
-\n - tremolo bar Release down
S - shift slide
s - legato slide
/ -  slide into from below or out of upwards
\ -  slide into from above or out of downwards
~ - vibrato
W - wide vibrato
tr - trill
TP - tremolo picking
T - tapping
S - slap
P - pop
< - fade in
^ - brush up
v - brush down

            
            
Suggest correction
Creating personal tab
Creating personal tab
You can edit any tab online and save it as your Personal.

You can edit, replace or remove any tab part or add personal notes – all changes will be seen only by you.

Personal tabs can be accessed anytime from any device, even offline.
Learn more »
comments
print report bad tab
3 comments total.
-1 reply
PiratesEverTabs 10 Sep 06, 2009 05:44 AM

**** all! not really learn to play this

+1 reply
priceless_twirp 818 Sep 19, 2009 03:51 PM

Huh?!

0 reply
-.KeviN.- 10 Sep 03, 2017 05:53 AM

good job dude

guest
You may want to rate the tab now too:
select rating
Wanna post a correction for this tab? Suggest correction