Oops, an error
Loading. Please wait.

But Honestly tab

version 3
version 3

Whole song

Interactive

4,569 views 3 this week
4 commentsread comments
1 2 3 4 5
x 3
add to favorites
×
Save as Personal and add changes to this tab that will be seen only by you. Learn more ›
×
You can save this tab as Personal to edit and correct it or add notes. All changes will be seen only by you. Learn more »
launch autoscroll
font size
0
reset
how to read this tab
guitar tuner
edit
Autoscroll
slow
fast
+/-
esc
set tempo
stop
Author
Difficulty
Tabbers playing skills
intermediate
intermediate ++
But, Honestly


                                 Foo Fighters
Dave Grohl - Rhythm Guitar

     Q    Q    E  E  E  E
E||--0----0----0--0--0--0--|
B||--0----0----0--0--0--0--|
G||--8----8----8--8--8--8--|
D||--9----9----9--9--9--9--|
A||--7----7----7--7--0--x--|
E||------------------0--7--|


  E  E  Q.     E  E  E
--L--0--0------0--0--0--|
--L--0--0------0--0--0--|
--L--8--8------8--8--8--|
--L--9--9------9--9--9--|
-----x--x------x--x--x--|
--L--7--7------7--7--7--|


  Q    Q    E  E  E    E
--0----0----0--0--0----L--|
--0----0----0--0--0----L--|
--9----9----9--9--9s--13--|
--7----7----7--7--7s--14--|
--0----0----0--0--0----L--|
--x----x----x--x--x-------|


  E   E   Q     E   E   E   E
--L---0---0-----0---0---0---0--|
--L---0---0-----0---0---0---0--|
--L--13--13----13--13--13--13--|
--L--14--14----14--14--14--14--|
--L---0---0-----0---0---0---0--|
-------------------------------|

on last time befor chorus do following

   E   E   Q     E   E   E   E
---L---0---0-----0---0---0---0--|
---L---0---0-----0---0---0---0--|
---L--13--13----13--13--13--13--|
---L--11--11----11--11--11--11--|
---L---0---0-----0---0---0---0--|
--------------------------------|

Chorus

   Q     E   Q     E   E   E
---0-----0---0-----0---0---0--|
---0-----0---0-----0---0---0--|
--13----13--13----13--13--13--|
--11----11--11----11--11--11--|
--13----13--13----13--13--13--|
------------------------------|


   E   E   E   Q     E   E   E
---L---0---0---0-----0---0---0--|
---L---0---0---0-----0---0---0--|
---L--13--13--13----13--13--13--|
---L--11--11--11----11--11--11--|
---L--13--13--13----13--13--13--|
--------------------------------|


   Q     Q     E   E   E   E
---0-----0-----0---0---0---0--|
---0-----0-----0---0---0---0--|
--13----13----13--13--13--13--|
--11----11----11--11--11--14--|
---0-----0-----0---0---0--11--|
---------------------------0--|


  E   E   Q     E   E   E   E
--L---0---0-----0---0---0---0--|
--L---0---0-----0---0---0---0--|
--L--13--13----13--13--13--13--|
--L--14--14----14--14--14--14--|
--L--11--11----11--11--11--11--|
--L---0---0-----0---0---0---0--|


   Q     Q     E   E   E   E
---0-----0-----0---0---0---0--|
---0-----0-----0---0---0---0--|
--13----13----13--13--13S--9--|
--11----11----11--11--11S--8--|
--13----13----13--13--13S--9--|
------------------------------|


  E  E  Q    E  E  E  E
--L--0--0----0--0--0--0--|
--L--0--0----0--0--0--0--|
--L--9--9----9--9--9-----|
--L--8--8----8--8--8-----|
--L--9--9----9--9--9-----|
-------------------------|
x3

  Q    Q    E  E  E  E
--0----0----0--0--0--0--|
--0----0----0--0--0--0--|
--1----1----1--1--1--1--|
--2----2----2--2--2--2--|
--2----2----2--2--2--2--|
--0----0----0--0--0--0--|


  E  E  Q    E  E  E  E
--L--0--0----0--0--0--0--|
--L--0--0----0--0--0--0--|
--L--1--1----1--1--0--0--|
--L--2--2----2--2--0--0--|
--L--2--2----2--2--0--0--|
--L--0--0----0--0--------|

Same Verse as before

Same chorus as before

x 3


  Q    Q    E  E  E  E
--0----0----0--0--0--0--|
--0----0----0--0--0--0--|
--1----1----1--1--1--1--|
--2----2----2--2--2--2--|
--2----2----2--2--2--2--|
--0----0----0--0--0--0--|


  E  E  Q    E  E  E  E
--L--0--0----0--0--0--0--|
--L--0--0----0--0--0--0--|
--L--1--1----1--1--0--0--|
--L--2--2----2--2--0--0--|
--L--2--2----2--2--0--0--|
--L--0--0----0--0--------|


  Q    Q    E  E  E  E
--0----0----0--0--0--0--|
--0----0----0--0--0--0--|
--8----8----8--8--8--8--|
--9----9----9--9--9--9--|
--9----9----9--9--9--9--|
--7----7----7--7--7--7--|


  E  E  Q    E  E  E  E
--L--0--0----0--0--0--0--|
--L--0--0----0--0--0--0--|
--L--8--8----8--8--8--8--|
--L--9--9----9--9--9--9--|
--L--9--9----9--9--9--9--|
--L--7--7----7--7--7--7--|


  Q    Q    E  E  E  E
--0----0----0--0--0--0--|
--0----0----0--0--0--0--|
--6----6----6--6--6--6--|
--6----6----6--6--6--6--|
--4----4----4--4--4--4--|
------------------------|


  E  E  Q    E  E  E  E
--L--0--0----0--0--0--0--|
--L--0--0----0--0--0--0--|
--L--6--6----6--6--6--6--|
--L--6--6----6--6--6--6--|
--L--4--4----4--4--4--4--|
-------------------------|


   Q     Q     E   E   E   E
---0-----0-----0---0---0---0--|
---0-----0-----0---0---0---0--|
---9-----9-----9---9---9---9--|
--10----10----10--10--10--10--|
--10----10----10--10--10--10--|
---8-----8-----8---8---8---8--|


  E   E   Q     E   E   E   E
--L---0---0-----0---0---0---0--|
--L---0---0-----0---0---0---0--|
--L---9---9-----9---9---9---9--|
--L--10--10----10--10--10--10--|
--L--10--10----10--10--10--10--|
--L---8---8-----8---8---8---8--|


  Q    Q    E  E  E  E
--0----0----0--0--0--0--|
--0----0----0--0--0--0--|
--4----4----4--4--4--4--|
--2----2----2--2--2--2--|
--2----2----2--2--2--2--|
--0----0----0--0--0--0--|

x 2 but on last instead of E chord, do following

   Q     Q     E   E   E   E
---0-----0-----0---0---0---0--|
---0-----0-----0---0---0---0--|
---9-----9-----9---9---9---9--|
--10----10----10--10--10--10--|
--10----10----10--10--10--10--|
---8-----8-----8---8---8---8--|


  E   E   Q     E   E   E   E
--L---0---0-----0---0---0---0--|
--L---0---0-----0---0---0---0--|
--L---9---9-----9---9---9---9--|
--L--10--10----10--10--10--10--|
--L--10--10----10--10--10--10--|
--L---8---8-----8---8---8---8--|

Last Section

  Q    Q    E  E  E  E
--0----0----0--0--0--0--|
--0----0----0--0--0--0--|
--9----9----9--9--9--9--|
--9----9----9--9--9--9--|
--7----7----7--7--7--7--|
--0----0----0--0--0--0--|


  E  E  Q    E  E  E  E
--L--0--0----0--0--0--0--|
--L--0--0----0--0--0--0--|
--L--9--9----9--9--9--9--|
--L--9--9----9--9--9--9--|
--L--7--7----7--7--7--7--|
--L--0--0----0--0--0--0--|


  Q    Q    E  E  E  E
--0----0----0--0--0--0--|
--0----0----0--0--0--0--|
--7----7----7--7--7--7--|
--7----7----7--7--7--7--|
--5----5----5--5--5--5--|
------------------------|


  E  E  Q    E  E  E  E
--L--0--0----0--0--0--0--|
--L--0--0----0--0--0--0--|
--L--7--7----7--7--7--7--|
--L--7--7----7--7--7--7--|
--L--5--5----5--5--5--5--|
-------------------------|


  Q    Q    E  E  E  E
--0----0----0--0--0--0--|
--0----0----0--0--0--0--|
--5----5----5--5--5--5--|
--5----5----5--5--5--5--|
--3----3----3--3--3--3--|
------------------------|


  E  E  Q    E  E  E  E
--L--0--0----0--0--0--0--|
--L--0--0----0--0--0--0--|
--L--5--5----5--5--5--5--|
--L--5--5----5--5--5--5--|
--L--3--3----3--3--3--3--|
-------------------------|


  Q    Q    E  E  E  E
--0----0----0--0--0--0--|
--0----0----0--0--0--0--|
--2----2----2--2--2--2--|
--2----2----2--2--2--2--|
--0----0----0--0--0--0--|
------------------------|


  E  E  Q    E  E  E  E
--L--0--0----0--0--0--0--|
--L--0--0----0--0--0--0--|
--L--2--2----2--2--2--2--|
--L--2--2----2--2--2--2--|
--L--0--0----0--0--0--0--|
-------------------------|

Till end, turning electric and heavyliy strummed where approprate
As the solo kicks in its no longer acoustic its is just playing the powere chord with 
of the open strings but essentially the same thing.

Shifflet

Chris Shifflet - Lead Guitar


          ^
          W
-------|--0----------------|
-------|--0----------------|
-------|--9----------------|
-------|--9----------------|
-------|--7----------------|
-------|--0----------------|


over the second round of these
                      ^
  W                   W
--L----------------|--0----------------|
--L----------------|--0----------------|
--L----------------|--7----------------|
--L----------------|--7----------------|
--L----------------|--0----------------|
--L----------------|-------------------|


                      ^
  W                   W
--L----------------|--0----------------|
--L----------------|--0----------------|
--L----------------|--5----------------|
--L----------------|--5----------------|
--L----------------|--3----------------|
-------------------|-------------------|


                      ^
  W                   W
--L----------------|--0----------------|
--L----------------|--0----------------|
--L----------------|--2----------------|
--L----------------|--2----------------|
--L----------------|--0----------------|
-------------------|-------------------|

then over the second half before the solo is this

  E  E  E  E  E  E  E  E
--------------------------|
--------------------------|
--9--9--9--9--9--9--9--9--|
--x--x--x--x--x--x--x--x--|
--7--7--7--7--7--7--7--7--|
--------------------------|


  E  E  E  E  E  E  E  E
--------------------------|
--------------------------|
--9--9--9--9--9--9--9--9--|
--x--x--x--x--x--x--x--x--|
--7--7--7--7--7--7--7--7--|
--------------------------|


   E   E   E   E   E   E   E   E
----------------------------------|
----------------------------------|
--11--11--11--11--11--11--11--11--|
---x---x---x---x---x---x---x---x--|
---9---9---9---9---9---9---9---9--|
----------------------------------|


   E   E   E   E   E   E   E   E
----------------------------------|
----------------------------------|
--11--11--11--11--11--11--11--11--|
---x---x---x---x---x---x---x---x--|
---9---9---9---9---9---9---9---9--|
----------------------------------|


   E   E   E   E   E   E   E   E
----------------------------------|
----------------------------------|
--12--12--12--12--12--12--12--12--|
---x---x---x---x---x---x---x---x--|
--10--10--10--10--10--10--10--10--|
----------------------------------|


   E   E   E   E   E   E   E   E
----------------------------------|
----------------------------------|
--12--12--12--12--12--12--12--12--|
---x---x---x---x---x---x---x---x--|
--10--10--10--10--10--10--10--10--|
----------------------------------|


   E   E   E   E   E   E   E   E
----------------------------------|
----------------------------------|
--14--14--14--14--14--14--14--14--|
---x---x---x---x---x---x---x---x--|
--12--12--12--12--12--12--12--12--|
----------------------------------|


   E   E   E   E   E   E   Q
---------------------------------|
---------------------------------|
--14--14--14--14--14--14--14\----|
---x---x---x---x---x---x---x-----|
--12--12--12--12--12--12--12\----|
---------------------------------|

over this there is really a third guitar gradually building up with Palm muted power 
which are the same as grohls chords but again without the open strings.

then the solo

   E   E   E   E   E   E   E   E
----------------------------------|
--12--------------12--------------|
------14--13--14------14--13--14--|
----------------------------------|
----------------------------------|
----------------------------------|


   E   E   E   E   E   E   E   E
----------------------------------|
--12--------------12--------------|
------14--13--14------14--13--14--|
----------------------------------|
----------------------------------|
----------------------------------|


   E   E   E   E   E   E   E   E
----------------------------------|
----------------------------------|
--14--13--11------14--13--11------|
--------------14--------------14--|
----------------------------------|
----------------------------------|


   E   E   E   E   E   E   E   E
----------------------------------|
----------------------------------|
--14--13--11------14--13--11------|
--------------14--------------14--|
----------------------------------|
----------------------------------|


   E   E   E   E   E   E   E   E
----------------------------------|
----------------------------------|
--12--11----------12--11----------|
----------14--12----------14--12--|
----------------------------------|
----------------------------------|


   E   E   E   E   E   E   E   E
----------------------------------|
----------------------------------|
--12--11----------12--11----------|
----------14--12----------14--12--|
----------------------------------|
----------------------------------|


   E   E   E   E   E   E   E   E
----------------------------------|
----------------------------------|
--------------11--12--14----------|
--11--12--14--------------11--12--|
----------------------------------|
----------------------------------|


   E   E   E   E   E   E  Q
-------------------------------|
--------------------------0----|
------11--12--14----------0----|
--14--------------11--12-------|
-------------------------------|
-------------------------------|

Fade out!

Duration Legend
---------------
W - whole
H - half
Q - quarter
E - 8th
S - 16th
T - 32nd
X - 64th
. - note dotted
|-n-|  - n-tuplets


Tablature Legend
----------------
L - tied note
x - dead note
g - grace note
(n) - ghost note
> - accentuded note
NH - natural harmonic
AH - artificial harmonic
TH - tapped harmonic
SH - semi harmonic
PH - pitch harmonic
h - hammer on
p - pull off
b - bend
br - bendRelease
pb - preBend
pbr - preBendRelease
brb - bendReleaseBend
\n/ - tremolo bar dip
\n - tremolo bar dive
-/n - tremolo bar Release up
/n\ - tremolo bar inverted dip
/n - tremolo bar return
-\n - tremolo bar Release down
S - shift slide
s - legato slide
/ -  slide into from below or out of upwards
\ -  slide into from above or out of downwards
~ - vibrato
W - wide vibrato
tr - trill
TP - tremolo picking
T - tapping
S - slap
P - pop
< - fade in
^ - brush up
v - brush down

            
            
Suggest correction
Creating personal tab
Creating personal tab
You can edit any tab online and save it as your Personal.

You can edit, replace or remove any tab part or add personal notes – all changes will be seen only by you.

Personal tabs can be accessed anytime from any device, even offline.
Learn more »
Give kudos to tab author, rate the tab!
1 2 3 4 5
comments
print report bad tab
4 comments total. Showing first comments.
+1 reply
silver_beatle29 10 Apr 13, 2008 03:05 AM

i looked at your other tabs, uve made some bloody good foo fighters ones, but i think this one yo were off, very good effort though, your an amazing tabber

0 reply
priceless_twirp 818 Apr 13, 2008 04:58 AM

mate that rating is wrong. I know because this tab is exported from my GP5 which is also 100 percent perfect. Maybe a 4**** cos its hard to decypher. But two stars?? what are you on?!

0 reply
tommerson16w 10 Jun 08, 2008 12:32 PM

This is hard to follow, but I did follow it. Nice tabbing

guest
You may want to rate the tab now too:
select rating
Wanna post a correction for this tab? Suggest correction