Oops, an error
Loading. Please wait.

Cheer Up Boys Your Make-Up Is Running tab

version 1
version 1

Whole song

2,592 views 1 this week
5 commentsread comments
1 2 3 4 5
x 9
add to favorites
×
Save as Personal and add changes to this tab that will be seen only by you. Learn more ›
×
You can save this tab as Personal to edit and correct it or add notes. All changes will be seen only by you. Learn more »
launch autoscroll
font size
0
reset
how to read this tab
guitar tuner
edit
Autoscroll
slow
fast
+/-
esc
set tempo
stop
Difficulty
Foo Fighters - Cheer Up Boys, Your Makeup Is Running
Album: ???
Instrument: Guitar
Tuning: eBGDAD
 
Intro
Gtr.1
e||--------------------------------|------------------|--------------||
B||--------------------------------|------------------|--------------||
G||--9-9-9-9-9-9-9-9-9-9-9-9-9-9-9-|------------------|--------2-2-2-||
D||--9-9-9-9-9-9-9-9-9-9-9-9-9-9-9-|------------------|--4-4-4-2-2-2-||
A||--7-7-7-7-7-7-7-7-7-7-7-7-7-7-7-|----------4-5-7-0-|--4-4-4-0-0-0-||
E||--------------------------------|--4-5-7-0---------|--2-2-2-------||
Gtr.2
e||--------------------------------|------------------||
B||--------------------------------|------------------||
G||--------------------------------|------------------||
D||--------------------------------|------------------||
A||------------------------4-5-7-0-|----------4-5-7-0-||
E||----------------4-5-7-0---------|--4-5-7-0---------||
 
Verse
Gtr.1
e||------------------------------3-3-||
B||--------------------------3-3-3-3-||
G||--9-9-9-9-9-9-9-9-2-2-2-2-2-2-0-0-||
D||--9-9-9-9-9-9-9-9-2-2-2-2-0-0-0-0-||
A||--7-7-7-7-6-6-6-6-0-0-0-0-----0-0-||
E||------------------------------3-3-||
Haven't figured out Gtr.2 yet... Sometime soon!
 
Pre-Chorus
Gtr.1
e||----------------||
B||----------------||
G||9-9-9-9-9-9-9-9-||
D||9-9-9-9-9-9-9-9-||
A||7-7-7-7-7-7-7-7-||
E||----------------||
Gtr.2
e||----------------||
B||----------------||
G||----------------||
D||----------------||
A||--------4-5-7-0-||
E||4-5-7-0---------||
 
Chorus
Gtr.1
e||--------------------------3-3-3-------||
B||--------------------3-3-3-3-3-3-------||
G||--------2-2-2-1-1-1-2-2-2-0-0-0-------||
D||--4-4-4-2-2-2-2-2-2-0-0-0-0-0-0-2-2-2-||
A||--4-4-4-0-0-0-2-2-2-------2-2-2-2-2-2-||
E||--2-2-2-------0-0-0-------3-3-3-0-0-0-||
Haven't figured out Gtr.2 yet.
 
Bridge - Goes something like this and then has a second part on a higher fret.
I haven't figured out how that goes yet.
Gtr.1 (PM)
e||--------------------------------------------------------------------||
B||--------------------------------------------------------------------||
G||----------------------------------4-4-4-4-2-2-2-2---------2---------||
D||--2-2-2-2-4-4-4-4-6-6-6-6-7-7-7-7-4-4-4-4-2-2-2-2-2-2-2-2-2-2-2-2-2-||
A||--2-2-2-2-4-4-4-4-6-6-6-6-7-7-7-7-2-2-2-2-0-0-0-0-2-2-2-2-0-2-2-2-2-||
E||--0-0-0-0-2-2-2-2-4-4-4-4-5-5-5-5-----------------0-0-0-0---0-0-0-0-||
 
Solo
Gtr.1
e||-------------------------||
B||-------------------------||
G||--9-9-9-7^9-7-7-7^12-7-9-||
D||-------------------------||
A||-------------------------||
E||-------------------------||
Gtr.2 plays Chorus-Gtr.1
On the last Chorus repeats something like the solo on Gtr.2. Like this:
e||-----------------------||
B||-----------------------||
G||--9-9-7-9-4-7-7-12-7-9-||
D||--x-x-x-x-x-x-x-x--x-x-||
A||--7-7-5-7-2-5-5-10-5-7-||
E||-----------------------||
 
Outro - Repeat Intro


It was meant to be but all along, it never meant to end,
Never stopped to ask you why, the feeling’s passing by
Did you see me in your light, right before your eyes
Was it just that I didn’t want to know, didn't know

Don’t be demised, Confusion.

Wait, wait there’s a world out there
Don’t give me my way
Give me one last wish
Don’t give me my way

Never meant to re-offend, unfold all your mystery
The devil’s telling me to sin, but he just don’t know how
Tell me lies don’t tell me when
Tell me your __________
I will let you go around again around again

Don’t be demised, Confusion.

Wait! wait! there’s a world out there
Don’t you be my brain
Give me one last wish
Don’t give me my way
Give me one last wish
Don’t give me my way

BRIDGE:
Every time you’re leaving
Late upon an evening
Turn out all the lights, then go to bed
Here I get this feeling, I know I will believe in
When I wake these ghosts are far past me

back to chorus



Don't you see my way





            
            
Suggest correction
Creating personal tab
Creating personal tab
You can edit any tab online and save it as your Personal.

You can edit, replace or remove any tab part or add personal notes – all changes will be seen only by you.

Personal tabs can be accessed anytime from any device, even offline.
Learn more »
comments
print report bad tab
5 comments total. Showing first comments.
0 reply
Dazza 315 Sep 17, 2007 01:18 AM

where can i find myself this song?

0 reply
Bert_Hastings 179 Oct 03, 2007 05:40 PM

new cd

0 reply
CalFoo 70 Oct 04, 2007 02:19 AM

Shifty plays the powerchords in the second half of the chorus:

e||-----------------------------------------||
B||-----------------------------------------||
G||--------2-2-2-1-1-1-7-7-7-12-12-12-9-9-9-||
D||--4-4-4-2-2-2-2-2-2-7-7-7-12-12-12-9-9-9-||
A||--4-4-4-0-0-0-2-2-2-5-5-5-10-10-10-7-7-7-||
E||--2-2-2-------0-0-0---------------(0-0-0)||

I think the ocvates he plays in the verse are: E G# C# F#
Not sure about the C# though.

guest
Wanna post a correction for this tab? Suggest correction