Oops, an error
Loading. Please wait.

Come Alive intro tab

version 1
version 1

Intro

Whole song

Interactive

25,960 views 9 this week
12 commentsread comments
1 2 3 4 5
x 7
add to favorites
×
Save as Personal and add changes to this tab that will be seen only by you. Learn more ›
×
You can save this tab as Personal to edit and correct it or add notes. All changes will be seen only by you. Learn more »
launch autoscroll
font size
0
reset
how to read this tab
guitar tuner
edit
Autoscroll
slow
fast
+/-
esc
set tempo
stop
Author
Difficulty
This is my first tab, and I'm primarily a drummer, so excuse my attempt at semi-detailed rhythms...
That said, this song is incredible and I prefer to think of it in 6/8 with emphasis on 1 
4.  Also worth noting is I wrote this to look good in Courier font size 12.  standard tuning...


soft

Part 1
     1 2 3 4 5 6 1 2 3 4 5 6 1 2 3 4 5 6 1 2 3 4 5 6
e|--|-----------|-----------|-----------|-----------|
B|--|------7----|------0----|------7----|------0----|
G|--|7----------|2----------|9----------|4----------|
D|--|--7--------|--2--------|--9--------|--4--------|   cont.
A|--|-----------|-----------|-----------|-----------|
E|--|7---7---7--|2---2---2--|9---9---9--|4---4---4--|

     1 2 3 4 5 6 1 2 3 4 5 6 1 2 3 4 5 6 1 2 3 4 5 6
e|--|-----------|-----------|-----------|-----------|
B|--|------7----|------0----|------7----|-----------|  (1x)
G|--|7----------|2----------|9----------|4----------|  w/o
D|--|--7--------|--2--------|--9--------|-----------|  words
A|--|-----------|-----------|-----------|-----------|
E|--|7---7---7--|2---2---2--|9---9---9--|4----------|

Part 2
     1 2 3 4 5 6 1 2 3 4 5 6 1 2 3 4 5 6 1 2 3 4 5 6
e|--|-----------|-----------|-----------|-----------|
B|--|------7----|------0----|------7----|------0----|
G|--|7----------|2----------|9----------|4----------|
D|--|--7--------|--2--------|--9--------|--4--------|   cont.
A|--|-----------|-----------|-----------|-----------|
E|--|7---7---7--|2---2---2--|9---9---9--|4---4---4--|

     1 2 3 4 5 6 1 2 3 4 5 6 1 2 3 4 5 6 1 2 3 4 5 6
e|--|-----------|-----------|-----------|-----------|
B|--|------7----|------0----|------7----|-----------|  (4x)
G|--|7----------|2----------|9----------|4----------|  w/o
D|--|--7--------|--2--------|--9--------|-----------|  words
A|--|-----------|-----------|-----------|-----------|
E|--|7---7---7--|2---2---2--|9---9---9--|4----------|


Unfortunately, I'm pretty bad at picking out chords, so you'll have to either do that on 
own or I can hope there's a way to update older submissions.  Enjoy.

-Shakaka

            
            
Suggest correction
Creating personal tab
Creating personal tab
You can edit any tab online and save it as your Personal.

You can edit, replace or remove any tab part or add personal notes – all changes will be seen only by you.

Personal tabs can be accessed anytime from any device, even offline.
Learn more »
comments
print report bad tab
12 comments total. Showing first comments.
0 reply
bezza87 88 Sep 13, 2007 04:12 AM

nice

0 reply
joeyjoejoejnr 10 Sep 23, 2007 08:42 AM

amazing song and a great tab

0 reply
joeyjoejoejnr 10 Sep 23, 2007 08:48 AM

one suggestion, this is your version!!

1 2 3 4 5 6 1 2 3 4 5 6 1 2 3 4 5 6 1 2 3 4 5 6
e|--|-----------|-----------|-----------|-----------|
B|--|------7----|------0----|------7----|-----------| (4x)
G|--|7----------|2----------|9----------|4----------| w/o
D|--|--7--------|--2--------|--9--------|-----------| words
A|--|-----------|-----------|-----------|-----------|
E|--|7---7---7--|2---2---2--|9---9---9--|4----------|

I find this much easier, to play. Its exactly the same as yours but plays the 11th fret on the G as oppsed to the 7th at the B
1 2 3 4 5 6 1 2 3 4 5 6 1 2 3 4 5 6 1 2 3 4 5 6
e|--|-----------|-----------|-----------|-----------|
B|--|------7----|------0----|-----------|-----------| (4x)
G|--|7----------|2----------|9-----11---|4----------| w/o
D|--|--7--------|--2--------|--9--------|-----------| words
A|--|-----------|-----------|-----------|-----------|
E|--|7---7---7--|2---2---2--|9---9---9--|4----------|

guest
You may want to rate the tab now too:
select rating
Wanna post a correction for this tab? Suggest correction