Oops, an error
Loading. Please wait.

Come Back tab

version 4
version 4

Whole song

Interactive

8,729 views 9 this week
1 commentread comment
1 2 3 4 5
x 12
add to favorites
×
Save as Personal and add changes to this tab that will be seen only by you. Learn more ›
×
You can save this tab as Personal to edit and correct it or add notes. All changes will be seen only by you. Learn more »
launch autoscroll
font size
0
reset
how to read this tab
guitar tuner
edit
Autoscroll
slow
fast
+/-
esc
set tempo
stop
Author
Difficulty
Song:Come Back
Artist:Foo Fighters
Album:One by One

Tabbed by ben3296(bptrules@hotmail.com)

4/4
Standard Tuning (eBGDAE)
Quite Slow - about 90 bpm

Intro
-----
guitars 1 & 2 (distortion)
e-|---------------------|----------------------|
B-|---------------------|----------------------|
G-|---------------------|----------------------|play
D-|---------------------|----------------------|4 times
A-|11-11-11-11-11-9-9---|9-9-9-9-9-9/11-7\6----|
E-|9--9--9--0--0--0-0-00|7-7-7-0-0----------7p0|


Verse
-----
guitars 1 & 2 (distortion)
e-|---------------------|----------------------|
B-|---------------------|----------------------|
G-|---------------------|----------------------|play
D-|---------------------|----------------------|4 times
A-|11-11-11-11-11-9-9---|9-9-9-9-9-9/11-7\6----|
E-|9--9--9--0--0--0-0-00|7-7-7-0-0----------7p0|

e-|---------------------|----------------------|
B-|---------------------|----------------------|
G-|---------------------|----------------------|
D-|---------------------|----------------------|
A-|11-11-11-11-11-9-9---|9-9-9-9-9-9/11-7\6----|
E-|9--9--9--0--0--0-0---|7-7-7-0-0----------7p0|

e-|---------------------|----------------------|
B-|---------------------|----------------------|
G-|---------------------|----------------------|play
D-|---------------------|----------------------|3 times
A-|11-11-11-11-11-9-9---|9-9-9-9-9-9/11-7\6----|
E-|9--9--9--0--0--0-0-00|7-7-7-0-0----------7p0|

Pre-Chorus
----------
guitars 1 & 2 (distortion)
e-|----------------|----------------|----------------|----------------|
B-|----------------|----------------|----------------|----------------|
G-|----------------|----------------|----------------|----------------|
D-|7-7-7-7-7-7-7-7-|7-7-7-7-7-7-7-7-|7-7-7-7-7-7-7-7-|7-7-7-7-7-7-9-9-|
A-|7-7-7-7-7-7-7-7-|7-7-7-7-7-7-7-7-|7-7-7-7-7-7-7-7-|7-7-7-7-7-7-9-9-|
E-|5-5-5-5-5-5-5-5-|5-5-5-5-5-5-5-5-|5-5-5-5-5-5-5-5-|5-5-5-5-5-5-7-7-|

Chorus
------
guitars 1 & 2 (distortion)
e-|--------------------|--------------00|0---0-0-0-------|----------------|
B-|--------------------|--------------00|0---0-0-0-------|----------------|
G-|-------------66-6-6-|3-3-3-3-3-------|x---x-x-x33-3-33|----------------|play
D-|11-11-11-11-777-7-7-|4-4-4-4-466-6---|2---2-2-244-4-44|7-7-7-77799-9-99|2 times
A-|11-11-11-11-777-7-7-|4-4-4-4-466-6---|2---2-2-244-4-44|7-7-7-77799-9-99|
E-|9--9--9--9--555-5-50|2-2-2-2-244-4---|0---0-0-022-2-22|5-5-5-55577-7-77|

Interlude
---------
guitars 1 & 2 (distortion)
e-|---------------------|----------------------|
B-|---------------------|----------------------|
G-|---------------------|----------------------|play
D-|---------------------|----------------------|2 times
A-|11-11-11-11-11-9-9---|9-9-9-9-9-9/11-7\6----|
E-|9--9--9--0--0--0-0-00|7-7-7-0-0----------7p0|


Verse
-----
guitars 1 & 2 (distortion)
e-|---------------------|----------------------|
B-|---------------------|----------------------|
G-|---------------------|----------------------|play
D-|---------------------|----------------------|4 times
A-|11-11-11-11-11-9-9---|9-9-9-9-9-9/11-7\6----|
E-|9--9--9--0--0--0-0-00|7-7-7-0-0----------7p0|

e-|---------------------|----------------------|
B-|---------------------|----------------------|
G-|---------------------|----------------------|play
D-|---------------------|----------------------|2 times
A-|11-11-11-11-11-9-9---|9-9-9-9-9-9/11-7\6----|
E-|9--9--9--0--0--0-0---|7-7-7-0-0----------7p0|

e-|---------------------|----------------------|
B-|---------------------|----------------------|
G-|---------------------|----------------------|play
D-|---------------------|----------------------|2 times
A-|11-11-11-11-11-9-9---|9-9-9-9-9-9/11-7\6----|
E-|9--9--9--0--0--0-0-00|7-7-7-0-0----------7p0|

Pre-Chorus
----------
guitars 1 & 2 (distortion)
e-|----------------|----------------|----------------|----------------|
B-|----------------|----------------|----------------|----------------|
G-|----------------|----------------|----------------|----------------|
D-|7-7-7-7-7-7-7-7-|7-7-7-7-7-7-7-7-|7-7-7-7-7-7-7-7-|7-7-7-7-7-7-9-9-|
A-|7-7-7-7-7-7-7-7-|7-7-7-7-7-7-7-7-|7-7-7-7-7-7-7-7-|7-7-7-7-7-7-9-9-|
E-|5-5-5-5-5-5-5-5-|5-5-5-5-5-5-5-5-|5-5-5-5-5-5-5-5-|5-5-5-5-5-5-7-7-|

Chorus
------
guitars 1 & 2 (distortion)
e-|--------------------|--------------00|0---0-0-0-------|----------------|
B-|--------------------|--------------00|0---0-0-0-------|----------------|
G-|-------------66-6-6-|3-3-3-3-3-------|x---x-x-x33-3-33|----------------|play
D-|11-11-11-11-777-7-7-|4-4-4-4-466-6---|2---2-2-244-4-44|7-7-7-77799-9-99|2 times
A-|11-11-11-11-777-7-7-|4-4-4-4-466-6---|2---2-2-244-4-44|7-7-7-77799-9-99|
E-|9--9--9--9--555-5-50|2-2-2-2-244-4---|0---0-0-022-2-22|5-5-5-55577-7-77|

Bridge
------
guitar 1 (distortion)
e-|-------------------|----------------|---------------------|----------------|
B-|-------------------|----------------|---------------------|----------------|
G-|6-666---66--66-6-6-|6-666--6-66-8-8-|9-999-9--9-99-9-9--9-|9-999-99--4---4-|
D-|6-666-4-66--66-6-64|6-666-46-66-8-8-|9-999-9--9-99-9-9--9-|9-999-99--4-4-4-|
A-|4-444-4-44--44-4-44|4-444-44-44-6-6-|7-777-7--7-77-7-7--7-|7-777-77--2-4-2-|
E-|------0-----------0|------0---------|0-000-0--0-00-0-0--0-|0-000-00----2---|
                      |                |                     |                |play
guitar 2 (distortion) |                |                     |                |2 times
e-|-------------------|----------------|---------------------|----------------|
B-|-------------------|----------------|---------------------|----------------|
G-|13----11-10------8-|6-----8---------|13----11-9------11\4-|----------4-6-4-|
D-|x-----x--x-------x-|x-----x6--------|x-----x--x------x--x-|----------x-x-x-|
A-|11----9--8-------6-|4-----6x--------|11----9--7------9-\2-|----------2-4-2-|
E-|-------------------|-------4---/16\-|---------------------|----------------|


guitar 1 (distortion)
e-|----------------|----------------|----------------|----------------|
B-|----------------|----------------|----------------|----------------|
G-|----------------|----------------|----------------|----------------|
D-|----------------|----------------|----------------|----------------|
A-|7-------6-------|4-------2-------|7-------6-------|4-------2-------|
E-|----------------|----------------|----------------|----------------|
                   |                |                |                |
guitar 2 (distortion)               |                |                |
e-|----------------|----------------|----------------|----------------|
B-|----------------|----------------|----------------|----------------|
G-|2---------------|----------------|----------------|----------------|
D-|2---------------|----------------|----------------|----------------|
A-|0---------------|----------------|----------------|----------------|
E-|----------------|----------------|----------------|----------------|


Interlude
---------
guitar 1 (acoustic)
e-|----------------|----------------|----------------|----------------|
B-|----------------|----------------|----------------|----------------|
G-|----------------|----------------|----------------|----------------|play
D-|----------------|----------------|----------------|----------------|2 times
A-|11----11--------|9-----4---------|11----11--------|9-----4---------|
E-|9-----0---------|7-----2---------|9-----0---------|7-----2---------|

guitar 1 (acoustic)
e-|---|----------------|----------------|----------------|----------------|
B-|---|----------------|----------------|----------------|----------------|
G-|---|----------------|----------------|----------------|----------------|
D-|---|----------------|----------------|----------------|----------------|
A-|---|11----11--------|9-----4---------|11----11--------|9-----4---------|
E-|---|9-----0---------|7-----2---------|9-----0---------|7-----2---------|
                       |                |                |                |
guitar 2 (acoustic)    |                |                |                |
e-|---|----------------|----------------|----------------|----------------|
B-|---|----------------|----------------|----------------|----------------|
G-|---|4h6-------------|----------------|4h6-------------|----------------|
D-|4h6|----------------|-------------4h6|----------------|-------------4h6|
A-|---|----------------|----------------|----------------|----------------|
E-|---|----------------|----------------|----------------|----------------|

guitar 1 (acoustic)
e-|----------------|----------------|----------------|----------------|
B-|----------------|----------------|----------------|----------------|
G-|----------------|----------------|----------------|----------------|
D-|----------------|----------------|----------------|----------------|
A-|11----11--------|9-----4---------|11----11--------|9-----4---------|
E-|9-----0---------|7-----2---------|9-----0---------|7-----2---------|
                   |                |                |                |
guitar 2 (acoustic)|                |                |                |
e-|----------------|----------------|----------------|----------------|
B-|----------------|4-----2---------|---------5h7----|4-----2---------|
G-|4h6-------------|4-----3---------|4h6-------------|4-----3---------|
D-|----------------|4-----4------4h6|----------------|4-----4---------|
A-|----------------|----------------|----------------|----------------|
E-|----------------|----------------|----------------|----------------|


Acoustic Solo
-------------
guitar 1 (12 string clean)
e-|------------------------|----------------|------------------------|----------------|
B-|------0-----------0-----|----0-----------|------0-----------0-----|----0-----------|
G-|---9-----------4--------|--8---11--------|---9-----------4--------|--8---11--------|
D-|11-------6--------------|9---------------|11-------6--------------|9---------------|
A-|------------------------|----------------|------------------------|----------------|
E-|------------------------|----------------|------------------------|----------------|
                           |                |                        |                |play
guitar 3 (clean)           |                |                        |                |4 times
e-|------------------------|----------------|------------------------|----------------|
B-|------------------------|----------------|------------------------|----------------|
G-|------------------------|----------------|------------------------|----------------|
D-|------------------------|----------------|------------------------|----------------|
A-|11-11-11-11-11-11-11-11-|9-9-9-4-4-4-4-4-|11-11-11-11-11-11-11-11-|9-9-9-4-4-4-4-4-|
E-|9--9--9--0--0--0--0--0--|7-7-7-2-2-2-2-2-|9--9--9--0--0--0--0--0--|7-7-7-2-2-2-2-2-|


guitar 2 (acoustic) 1st time
e-|-----------------|----------------|------------------|----------------|
B-|------4---5--5h7-|----------------|------4---5---5h7-|----------------|
G-|--3-4------------|--4---6---------|--3-4-------------|--4---6---------|
D-|-----------------|----------------|------------------|----------------|
A-|-----------------|----------------|------------------|----------------|
E-|-----------------|----------------|------------------|----------------|

guitar 2 (acoustic) 2nd time
e-|-------------7---|----------------|------------------|----------------|
B-|---------7h9-----|----------------|------4---5---5h7-|----------------|
G-|-----------------|----------------|--3-4-------------|--4---6---------|
D-|-----------------|----------------|------------------|----------------|
A-|-----------------|----------------|------------------|----------------|
E-|-----------------|----------------|------------------|----------------|

guitar 2 (acoustic) 3rd time
e-|-------------------|--------------------|------------------|------------------|
B-|4h5---4h5-7-5------|--------------------|5------5h7--------|------------------|
G-|----------------4h6|----4h6-4p3--4--4h6-|----4h6---4h6-----|------------------|
D-|-------------------|--------------------|------------------|-2h4--2h4---------|
A-|-------------------|--------------------|------------------|------------------|
E-|-------------------|--------------------|------------------|------------------|

guitar 2 (acoustic) 4th time
e-|-----------------|----------------|----------7-6---|------------------|
B-|------4---5--5h7-|--------------9-|--9---9-------7-|--5--4h5-7-5-4h5--|
G-|--3-4------------|--4---6---------|----------------|----------------4-|
D-|-----------------|----------------|----------------|------------------|
A-|-----------------|----------------|----------------|------------------|
E-|-----------------|----------------|----------------|------------------|


Distortion Enters
-----------------
guitar 1 (distortion)
e-|------------------------|----------------|------------------------|------------------|
B-|------------------------|----------------|------------------------|------------------|
G-|------------------------|----------------|------------------------|---------4--------|
D-|------------------------|6-666-6-666-----|6--6-66-66--6-66--6-66-6|6----4h6----------|
A-|------------------------|----------------|------------------------|------------------|
E-|------------------------|----------------|------------------------|------------------|
                           |                |                        |                |
guitar 2 (acoustic)        |                |                        |                |
e-|------------------------|----------------|------------------------|----------------|
B-|---------4-----5----5h7-|----------------|------------------------|----------------|
G-|---3--4-----------------|--4---6---------|------------------------|----------------|
D-|------------------------|----------------|------------------------|----------------|
A-|------------------------|----------------|------------------------|----------------|
E-|------------------------|----------------|------------------------|----------------|
                           |                |                        |                |
guitar 3 (clean)           |                |                        |                |
e-|------------------------|----------------|------------------------|----------------|
B-|------------------------|----------------|------------------------|----------------|
G-|------------------------|----------------|------------------------|----------------|
D-|------------------------|----------------|------------------------|----------------|
A-|11-11-11-11-11-11-11-11-|9-9-9-4-4-4-4-4-|11-11-11-11-11-11-11-11-|9-9-9-4-4-4-4-4-|
E-|9--9--9--0--0--0--0--0--|7-7-7-2-2-2-2-2-|9--9--9--0--0--0--0--0--|7-7-7-2-2-2-2-2-|


guitar 1 (distortion)
e-|------------------------|----------------|------------------------|----------------|
B-|------------------------|----------------|------------------------|----------------|
G-|------------------------|--------4h6-----|------------------------|----------------|
D-|6--6-66-66--6-66--6-66-6|6----4h6--------|6--6-66-66--6-66--6-66-6|6---------------|
A-|------------------------|----------------|------------------------|----------------|
E-|------------------------|----------------|------------------------|----------------|
                           |                |                        |                |
guitar 2 (acoustic)        |                |                        |                |
e-|------------------------|----------------|---------------------7--|------9---------|
B-|---------4-----5----5h7-|----------------|4--5----5h7---7h9-------|--9-------------|
G-|---3--4-----------------|--4---6---------|------------------------|----------------|
D-|------------------------|----------------|------------------------|----------------|
A-|------------------------|----------------|------------------------|----------------|
E-|------------------------|----------------|------------------------|----------------|
                           |                |                        |                |
guitar 3 (clean)           |                |                        |                |
e-|------------------------|----------------|------------------------|----------------|
B-|------------------------|----------------|------------------------|----------------|
G-|------------------------|----------------|------------------------|----------------|
D-|------------------------|----------------|------------------------|----------------|
A-|11-11-11-11-11-11-11-11-|9-9-9-4-4-4-4-4-|11-11-11-11-11-11-11-11-|9-9-9-4-4-4-4-4-|
E-|9--9--9--0--0--0--0--0--|7-7-7-2-2-2-2-2-|9--9--9--0--0--0--0--0--|7-7-7-2-2-2-2-2-|

End Acoustic Section
--------------------
guitars 1 & 2 (distortion)
e-|----------------|----------------|----------------|----------------|
B-|----------------|----------------|----------------|----------------|
G-|----------------|----------------|----------------|----------------|play
D-|----------------|----------------|----------------|----------------|2 times
A-|7-----6---------|7-----4---------|7-----6---------|7-----4---------|
E-|9-----7---------|5-----2---------|9-----7---------|5-----2---------|

Distortion Solo
---------------
guitar 1 (distortion)
e-|----------------|----------------|
B-|----------------|----------------|
G-|----------------|----------------|play
D-|----------------|----------------|3 times
A-|7-7-7-6-6-6-6-6-|7-7-7-4-4-4-4-4-|
E-|9-9-9-7-7-7-7-7-|5-5-5-2-2-2-2-2-|

then 4th time play
e-|----------------|----------------|----------------|----------------|
B-|----------------|----------------|----------------|----------------|
G-|----------------|----------------|----------------|----------------|
D-|----------------|----------------|----------------|----------------|
A-|7-7-7-6-6-6-6-6-|7-7-7-4---------|----------------|----------------|
E-|9-9-9-7-7-7-7-7-|5-7-7-2---------|----------------|----------------|


guitar 2 (distortion) 1st time
e-|------------------------|-----------------------|
B-|------------------------|-----------------------|
G-|13-13-13-13-13-13-13-13-|13-13-13-13-13-13------|
D-|x--x--x--x--x--x--x--x--|x--x--x--x--x--x-------|
A-|11-11-11-11-11-11-11-11-|11-11-11-11-11-11------|
E-|------------------------|-----------------/12\2/|

guitar 2 (distortion) 2nd time
e-|------------------------|-----------------------|
B-|------------------------|-----------------------|
G-|13-13-13-13-13-13-13-13-|13-13-13-13-13---------|
D-|x--x--x--x--x--x--x--x--|x--x--x--x--x----------|
A-|11-11-11-11-11-11-11-11-|11-11-11-11-11---------|
E-|------------------------|--------------/12\2/12\|

guitar 2 (distortion) 3rd time
e-|------------------------|-----------------------|
B-|------------------------|-----------------------|
G-|13-13-13-13-13-13-13-13-|13-13-13-13-13---------|
D-|x--x--x--x--x--x--x--x--|x--x--x--x--x----------|
A-|11-11-11-11-11-11-11-11-|11-11-11-11-11---------|
E-|------------------------|--------------/16\2/12\|

guitar 2 (distortion) 4th time
e-|------------------------|-------------------|----------------|----------------|
B-|------------------------|-------------------|----------------|----------------|
G-|13-13-13-13-13-13-13-13-|13-13-13-13--------|----------------|----------------|
D-|x--x--x--x--x--x--x--x--|x--x--x--x---------|----------------|----------------|
A-|11-11-11-11-11-11-11-11-|11-11-11-11--------|----------------|----------------|
E-|------------------------|-------------------|----------------|----------------|


guitars 1 & 2 (distortion)
e-|--------------------|--------------00|0---0-0-0-------|----------------|
B-|--------------------|--------------00|0---0-0-0-------|----------------|
G-|-------------66-6-6-|3-3-3-3-3-------|x---x-x-x33-3-33|----------------|play
D-|11-11-11-11-777-7-7-|4-4-4-4-466-6---|2---2-2-244-4-44|7-7-7-77799-9-99|2 times
A-|11-11-11-11-777-7-7-|4-4-4-4-466-6---|2---2-2-244-4-44|7-7-7-77799-9-99|
E-|9--9--9--9--555-5-50|2-2-2-2-244-4---|0---0-0-022-2-22|5-5-5-55577-7-77|


Chorus
------
guitars 1 & 2 (distortion)
e-|--------------------|--------------00|0---0-0-0-------|----------------|
B-|--------------------|--------------00|0---0-0-0-------|----------------|
G-|-------------66-6-6-|3-3-3-3-3-------|x---x-x-x33-3-33|----------------|play
D-|11-11-11-11-777-7-7-|4-4-4-4-466-6---|2---2-2-244-4-44|7-7-7-77799-9-99|2 times
A-|11-11-11-11-777-7-7-|4-4-4-4-466-6---|2---2-2-244-4-44|7-7-7-77799-9-99|
E-|9--9--9--9--555-5-50|2-2-2-2-244-4---|0---0-0-022-2-22|5-5-5-55577-7-77|


Outro
-----
guitars 1 & 2
e-|----------------|
B-|----------------|
G-|6-666-06-06-6\--|play about
D-|6-666-06-06-6\--|20 times
A-|6-666-06-06-6\--|and fade
E-|4-444-04-04-4\--|


Hope this helps learn the song - apologies if some of the tab is hard to understand
I think it is all right but please correct any mistakes - there may well be some as it 
a long time to tab out!
Please rate and comment
Thanks :)

            
            
Suggest correction
Creating personal tab
Creating personal tab
You can edit any tab online and save it as your Personal.

You can edit, replace or remove any tab part or add personal notes – all changes will be seen only by you.

Personal tabs can be accessed anytime from any device, even offline.
Learn more »
comments
print report bad tab
1 comment total.
0 reply
mlucas9794 10 Oct 01, 2017 08:34 AM

I love the Foo Fighters. I plan to learn this song so I can play it once I am back home in the states. The riff was a lot easier the way you did it. Thank you.

guest
You may want to rate the tab now too:
select rating
Wanna post a correction for this tab? Suggest correction