Oops, an error
Loading. Please wait.
We have an official Long Road To Ruin tab made by UG professional guitarists. Check out the tab »
×
4,781 views 1 this week
2 commentsread comments
1 2 3 4 5
x 5
add to favorites
×
Save as Personal and add changes to this tab that will be seen only by you. Learn more ›
×
You can save this tab as Personal to edit and correct it or add notes. All changes will be seen only by you. Learn more »
launch autoscroll
font size
0
reset
guitar tuner
backing track
0:00
0:00
edit
Autoscroll
slow
fast
+/-
esc
set tempo
stop
Author
Long Road to Ruin Bass Tab - by budgie182

verse 1 - 0:22

|-----------------------------------|-----------------------------------|
|-----------------------------------|-----------------------------------|
|-----------------------------------|-----------------------------------|
|-----------------------------------|-----------------------------------|
|--3-3-3-3-3-3-3-3-3-3-3-3-3-3-3-3--|--3-3-3-3-3-3-3-3-5-5-5-5-7-7-7-7--|
|-----------------------------------|-----------------------------------|

|-----------------------------------|-----------------------------------|
|-----------------------------------|-----------------------------------|
|-----------------------------------|-----------------------------------|
|-----------------------------------|-----------------------------------|
|--8-8-8-8-8-8-8-8-8-8-8-8-8-8-8-8--|--8-8-8-8-8-8-8-8-8-8-8-8-8-8-8-8--|
|-----------------------------------|-----------------------------------|

|-----------------------------------|
|-----------------------------------|
|-----------------------------------|
|-----------------------------------|
|--3-3-3-3-3-3-3-3-3-3-3-3-3-3-3-3--|
|-----------------------------------|


bridge - 0:39

|-----------------------------------|-----------------------------------|
|-----------------------------------|-----------------------------------|
|-----------------------------------|-----------------------------------|
|-----------------------------------|-----------------------------------|
|--0-0-0-0-0-0-0-0-2-2-2-2-2-2-2-2--|--3-3-3-3-3-3-3-3-2-2-2-2-2-2-2-2--|
|-----------------------------------|-----------------------------------|

|-----------------------------------|-----------------------------------|
|-----------------------------------|-----------------------------------|
|-----------------------------------|-----------------------------------|
|-----------------------------------|-----------------------------------|
|--0-0-0-0-0-0-0-0-2-2-2-2-2-2-2-2--|--3-3-3-3-3-3-3-3-5-5-5-5-5-5-5-5--|
|-----------------------------------|-----------------------------------|


chorus - 0:52


|-----------------------------------|-----------------------------------|
|-----------------------------------|-----------------------------------|
|-----------------------------------|-----------------------------------|
|-----------------------------------|-----------------------------------|
|-------------------3--3-3--3-3-3---|-------------------3--3-3--3--2----|
|--1--1-1--1--1-1-1-----------------|--1--1-1--1--1-1-1-----------------|


|-----------------------------------|-----------------------------------|
|-----------------------------------|-----------------------------------|
|-----------------------------------|-----------------------------------|
|-----------------------------------|-----------------------------------|
|--0--0-0--0--0-0-0-----------------|------------------0-0-0-0-2-2-2-2--|
|-------------------2--2-2--2-2-2---|--1-1-1-1-3-3-3-3------------------|


verse 2 - 1:05

|-----------------------------------|-----------------------------------|
|-----------------------------------|-----------------------------------|
|-----------------------------------|-----------------------------------|
|-----------------------------------|-----------------------------------|
|--3-3-3-3-3-3-3-3-3-3-3-3-3-3-3-3--|--3-3-3-3-3-3-3-3-5-5-5-5-7-7-7-7--|
|-----------------------------------|-----------------------------------|

|-----------------------------------|-----------------------------------|
|-----------------------------------|-----------------------------------|
|-----------------------------------|-----------------------------------|
|-----------------------------------|-----------------------------------|
|--8-8-8-8-8-8-8-8-8-8-8-8-8-8-8-8--|--8-8-8-8-8-8-8-8-8-8-8-8-8-8-8-8--|
|-----------------------------------|-----------------------------------|

|-----------------------------------|-----------------------------------|
|-----------------------------------|-----------------------------------|
|-----------------------------------|-----------------------------------|
|-----------------------------------|-----------------------------------|
|--3-3-3-3-3-3-3-3-3-3-3-3-3-3-3-3--|--3-3-3-3-3-3-3-3-5-5-5-5-7-7-7-7--|
|-----------------------------------|-----------------------------------|

|-----------------------------------|-----------------------------------|
|-----------------------------------|-----------------------------------|
|-----------------------------------|-----------------------------------|
|-----------------------------------|-----------------------------------|
|--8-8-8-8-8-8-8-8-8-8-8-8-8-8-8-8--|--8-8-8-8-8-8-8-8-8-8-8-8-8-8-8-8--|
|-----------------------------------|-----------------------------------|



bridge - 1:31

|-----------------------------------|-----------------------------------|
|-----------------------------------|-----------------------------------|
|-----------------------------------|-----------------------------------|
|-----------------------------------|-----------------------------------|
|--0-0-0-0-0-0-0-0-2-2-2-2-2-2-2-2--|--3-3-3-3-3-3-3-3-2-2-2-2-2-2-2-2--|
|-----------------------------------|-----------------------------------|

|-----------------------------------|-----------------------------------|
|-----------------------------------|-----------------------------------|
|-----------------------------------|-----------------------------------|
|-----------------------------------|-----------------------------------|
|--0-0-0-0-0-0-0-0-2-2-2-2-2-2-2-2--|--3-3-3-3-3-3-3-3-5-5-5-5-5-5-5-5--|
|-----------------------------------|-----------------------------------|


chorus - 1:44


|-----------------------------------|-----------------------------------|
|-----------------------------------|-----------------------------------|
|-----------------------------------|-----------------------------------|
|-----------------------------------|-----------------------------------|
|-------------------3--3-3--3-3-3---|-------------------3--3-3--3--2----|
|--1--1-1--1--1-1-1-----------------|--1--1-1--1--1-1-1-----------------|


|-----------------------------------|
|-----------------------------------|
|-----------------------------------|
|-----------------------------------|
|--0--0-0--0--0-0-0-----------------|
|-------------------2--2-2--2-2-2---|


|-----------------------------------|-----------------------------------|
|-----------------------------------|-----------------------------------|
|-----------------------------------|-----------------------------------|
|-----------------------------------|-----------------------------------|
|-------------------3--3-3--3-3-3---|-------------------3--3-3--3--2----|
|--1--1-1--1--1-1-1-----------------|--1--1-1--1--1-1-1-----------------|


|-----------------------------------|-----------------------------------|
|-----------------------------------|-----------------------------------|
|-----------------------------------|-----------------------------------|
|-----------------------------------|-----------------------------------|
|--0--0-0--0--0-0-0-----------------|------------------0-0-0-0-2-2-2-2--|
|-------------------2--2-2--2-2-2---|--1-1-1-1-3-3-3-3------------------|


break-down - 2:07

|------------|------------|
|------------|------------|
|------------|------------|
|------------|------------|
|--3----2----|--3----2----|
|------------|------------|

"For every piece to fall in place..."
|------------|------------|------------|------------|
|------------|------------|------------|------------|
|------------|------------|------------|------------|
|------------|------------|------------|------------|
|--3----2----|--3----2----|--3----2----|--3----2----|
|------------|------------|------------|------------|

|------------|------------|------------|------------|
|------------|------------|------------|------------|
|------------|------------|------------|------------|
|------------|------------|------------|------------|
|--3----2----|--3----2----|--3----2----|--3----2----|
|------------|------------|------------|------------|

"Come now, I'm leaving here tonight..."
|------------|------------|------------|------------|
|------------|------------|------------|------------|
|------------|------------|------------|------------|
|------------|------------|------------|------------|
|--0----2----|--3----2----|--0----2----|--(3)-------|
|------------|------------|------------|------------|

|-------------------|
|-------------------|
|-------------------|
|-------------------|
|--5-5-5-5-5-5-5-5--|
|-------------------|

solo - 2:40

|-----------------------------------|-----------------------------------|
|-----------------------------------|-----------------------------------|
|-----------------------------------|-----------------------------------|
|-----------------------------------|-----------------------------------|
|-------------------3--3-3--3-3-3---|-------------------3--3-3--3--2----|
|--1--1-1--1--1-1-1-----------------|--1--1-1--1--1-1-1-----------------|


|-----------------------------------|
|-----------------------------------|
|-----------------------------------|
|-----------------------------------|
|--0--0-0--0--0-0-0-----------------|
|-------------------2--2-2--2-2-2---|


|-----------------------------------|-----------------------------------|
|-----------------------------------|-----------------------------------|
|-----------------------------------|-----------------------------------|
|-----------------------------------|-----------------------------------|
|-------------------3--3-3--3-3-3---|-------------------3--3-3--3--2----|
|--1--1-1--1--1-1-1-----------------|--1--1-1--1--1-1-1-----------------|


|-----------------------------------|-----------------------------------|
|-----------------------------------|-----------------------------------|
|-----------------------------------|-----------------------------------|
|-----------------------------------|-----------------------------------|
|--0--0-0--0--0-0-0-----------------|------------------0-0-0-0-2-2-2-2--|
|-------------------2--2-2--2-2-2---|--1-1-1-1-3-3-3-3------------------|

chorus - 3:00

|-----------------------------------|-----------------------------------|
|-----------------------------------|-----------------------------------|
|-----------------------------------|-----------------------------------|
|-----------------------------------|-----------------------------------|
|-------------------3--3-3--3-3-3---|-------------------3--3-3--3--2----|
|--1--1-1--1--1-1-1-----------------|--1--1-1--1--1-1-1-----------------|


|-----------------------------------|
|-----------------------------------|
|-----------------------------------|
|-----------------------------------|
|--0--0-0--0--0-0-0-----------------|
|-------------------2--2-2--2-2-2---|


|-----------------------------------|-----------------------------------|
|-----------------------------------|-----------------------------------|
|-----------------------------------|-----------------------------------|
|-----------------------------------|-----------------------------------|
|-------------------3--3-3--3-3-3---|-------------------3--3-3--3--2----|
|--1--1-1--1--1-1-1-----------------|--1--1-1--1--1-1-1-----------------|


|-----------------------------------|
|-----------------------------------|
|-----------------------------------|
|-----------------------------------|
|--0--0-0--0--0-0-0-----------------|
|-------------------2--2-2--2-2-2---|

|-----------------------------------|-----------------------------------|
|-----------------------------------|-----------------------------------|
|-----------------------------------|-----------------------------------|
|-----------------------------------|-----------------------------------|
|-------------------3--3-3--3-3-3---|-------------------3--3-3--3--2----|
|--1--1-1--1--1-1-1-----------------|--1--1-1--1--1-1-1-----------------|

|-----------------------------------|-----------------------------------|
|-----------------------------------|-----------------------------------|
|-----------------------------------|-----------------------------------|
|-----------------------------------|-----------------------------------|
|--0--0-0--0--0-0-0-----------------|------------------0-0-0-0-2-2-2-2--|
|-------------------2--2-2--2-2-2---|--1-1-1-1-3-3-3-3------------------|

|-----------------------------------|-----|
|-----------------------------------|-----|
|-----------------------------------|-----|
|-----------------------------------|-----|
|------------------0-0-0-0-2-2-2-2--|--3--|
|--1-1-1-1-3-3-3-3------------------|-----|

fade out...

            
            
Suggest correction
Creating personal tab
Creating personal tab
You can edit any tab online and save it as your Personal.

You can edit, replace or remove any tab part or add personal notes – all changes will be seen only by you.

Personal tabs can be accessed anytime from any device, even offline.
Learn more »
comments
print report bad tab
2 comments total.
0 reply
Delboy_360 10 Jan 06, 2008 06:57 AM

Why did u put 6 strings?

0 reply
brokenheart77 15 Jul 12, 2008 01:26 PM

maybe his bass has 6 strings...nah, i'm kidding
i made that mistake before too when i was writing a bass tab

well anyway, awesome tab man!!!!

guest
You may want to rate the tab now too:
select rating
Wanna post a correction for this tab? Suggest correction