Oops, an error
Loading. Please wait.
We have an official Long Road To Ruin tab made by UG professional guitarists. Check out the tab »
×
31,680 views 21 this week
8 commentsread comments
1 2 3 4 5
x 25
add to favorites
×
Save as Personal and add changes to this tab that will be seen only by you. Learn more ›
×
You can save this tab as Personal to edit and correct it or add notes. All changes will be seen only by you. Learn more »
launch autoscroll
font size
0
reset
guitar tuner
backing track
0:00
0:00
edit
Autoscroll
slow
fast
+/-
esc
set tempo
stop
Author
Foo Fighters - Long Road to Ruin
Album: Echoes, Silence, Patience & Grace
Instrument: Bass
Tuning: GDAE

Tabbed By: Gernt



**REST FOR 6 BARS**

Verse (22 SEC)
G|----------------|----------------|----------------|----------------|
D|----------------|--------00002222|----------------|----------------|
A|3333333333333---|33333333--------|-------------333|--------33335555|
E|-------------333|----------------|1111111111111---|11111111--------| 

G|----------------|
D|----------------|
A|3333333333333333|
E|----------------|


Bridge
G|----------------|----------------|----------------|----------------|
D|----------------|----------------|----------------|----------------|
A|000---00222---22|33300033222---22|000---00222---22|3330003355555555|
E|---111-----333--|-----------333--|---111-----333--|----------------|


Chorus
G|----------------|----------------|----------------|----------------|
D|33333333--------|33333333--------|----------------|----------------|
A|--------33333333|--------33333-2-|0000000055555555|--------00002222|
E|----------------|----------------|----------------|11113333--------|
 

Verse
G|----------------|----------------|----------------|----------------|
D|----------------|--------00002222|----------------|----------------|
A|3333333333333---|33333333--------|-------------333|--------33335555|
E|-------------333|----------------|1111111111111---|11111111--------|

G|----------------|----------------|----------------|----------------|
D|----------------|--------00002222|----------------|----------------|
A|3333333333333---|33333333--------|-------------333|----------------|
E|-------------333|----------------|1111111111111---|1111111111111111|  


Bridge
G|----------------|----------------|----------------|----------------|
D|----------------|----------------|----------------|----------------|
A|0-----0-2-----2-|3--0--3-2-----2-|0-----0-2-----2-|3--0--3-55555555|
E|---1-------3----|-----------3----|---1-------3----|----------------|


Chorus
G|----------------|----------------|----------------|
D|33333333--------|33333333--------|----------------|
A|--------33333333|--------33333-2-|0000000055555555|
E|----------------|----------------|----------------| 

G|----------------|----------------|----------------|----------------|
D|33333333--------|33333333--------|----------------|----------------|
A|--------33333333|--------33333-2-|0000000055555555|--------00002222|
E|----------------|----------------|----------------|11113333--------|
  

Slow Part
G|----------------|----------------|
D|----------------|----------------|
A|3-------2-------|3-------2-------|
E|----------------|----------------|

G|----------------|----------------|----------------|----------------|
D|----------------|----------------|----------------|----------------|
A|3-------2-------|7-------5-------|3-------2-------|0---------------|
E|----------------|----------------|----------------|--------3-------|

Bridge
G|----------------|----------------|----------------|----------------|
D|----------------|----------------|----------------|----------------|
A|0-----0-2-----2-|3--0--3-2-----2-|0-----0-2-----2-|--------55555555|
E|---1-------3----|-----------3----|---1-------3----|----------------|


Solo
G|----------------|----------------|----------------|
D|33333333--------|33333333--------|----------------|
A|--------33333333|--------33333-2-|0000000055555555|
E|----------------|----------------|----------------|
  

G|----------------|----------------|----------------|
D|33333333--------|33333333--------|----------------|
A|--------33333333|--------33333-2-|0000000055555555|
E|----------------|----------------|----------------|
 

Chorus
G|----------------|----------------|----------------|
D|33333333--------|33333333--------|----------------|
A|--------33333333|--------33333-2-|0000000055555555|
E|----------------|----------------|----------------|
   
G|----------------|----------------|----------------|
D|33333333--------|33333333--------|----------------|
A|--------33333333|--------33333-2-|0000000055555555|
E|----------------|----------------|----------------|
  
G|----------------|----------------|----------------|
D|33333333--------|33333333--------|----------------|
A|--------33333333|--------33333-2-|0000000055555555|
E|----------------|----------------|----------------|
 

Ending
G|----------------|----------------|----|
D|----------------|----------------|----|
A|--------00002222|--------00002222|3~--|
E|11113333--------|11113333--------|----|
     

            
            
Suggest correction
Creating personal tab
Creating personal tab
You can edit any tab online and save it as your Personal.

You can edit, replace or remove any tab part or add personal notes – all changes will be seen only by you.

Personal tabs can be accessed anytime from any device, even offline.
Learn more »
comments
print report bad tab
8 comments total. Showing first comments.
0 reply
Joeskeppi 75 Dec 03, 2007 08:34 AM

Nice tab! If I'm being really picky, I think there's a bit of chorus variation and a couple of fills missing, I think it
sometimes goes like this with the slides and fills
included:

G|-----------------|-------------------|----------------|
D|-----------------|-------------------|7779~~75
--------|
A|88888888/33333333|8888888/10/33333-2-|--------75555555|
E|-----------------|-------------------|----------
------|

Obviously playing it as 8/3 makes the slides easier (for me anyway)

+1 reply
Joeskeppi 75 Dec 03, 2007 08:35 AM

Oops, missed the tab tags! Sorry

G|-----------------|-------------------|----------------|
D|-----------------|-------------------|7779~~75--------|
A|88888888/33333333|8888888/10/33333-2-|--------75555555|
E|-----------------|-------------------|----------------|

0 reply
ben N his bass 51 Dec 11, 2007 09:21 AM

yer brillaint tab much better than the other one but needs a bit mkroe vairitaion! well done!

guest
You may want to rate the tab now too:
select rating
Wanna post a correction for this tab? Suggest correction