Oops, an error
Loading. Please wait.
We have an official Long Road To Ruin tab made by UG professional guitarists. Check out the tab »
×
17,694 views 6 this week
5 commentsread comments
1 2 3 4 5
x 7
add to favorites
×
Save as Personal and add changes to this tab that will be seen only by you. Learn more ›
×
You can save this tab as Personal to edit and correct it or add notes. All changes will be seen only by you. Learn more »
launch autoscroll
font size
0
reset
how to read this tab
guitar tuner
backing track
0:00
0:00
edit
Autoscroll
slow
fast
+/-
esc
set tempo
stop
Difficulty
intermediate
Foo Fighters

transcribed by :davewilk
17/01/08

b = Bend
h = Hammer
r = release

I've written the solo out in sections for ease of learning, any comments or corrections welcomed


-------3----b-r----h-p-s---------------------------|
----h------5-7-5--3-5-3-1---3--1-------------------|
---0-2----------------------------2--0-------------|
-3-------------------------------------------------|
---------------------------------------------------|
---------------------------------------------------|


-------3---b-r----------s--------------------------|
----h-----5-7-5--5--7--3-1-------------------------|
---0-2----------------------2--0-------------------|
-3-------------------------------------------------|
---------------------------------------------------|
---------------------------------------------------|

--h-p------------------------------------------|
-1-3-1----1--p------h-p------h-p---------------|
-------2----2-0----0-2-0----0-2-0-----h-p------|
----------------2--------2--------2--0-2-0-----|
-------------------------------------------3---|
-----------------------------------------------|

---------------------------------------|
---------------------------------------|
---h-p------h-p------------------------|
---0-2-0----0-2-0------0---------------|
---------3--------3--------3--0--3-3---|
---------------------------------------|

------------------------------------------------------------------------|
-----------------------------5-5-----5-----b---------r----------h-r-----|
-----------------------h-----5-5-----5----7-9-9-9-9-9-7--5-7---5-7-5----|
-------------s---5----5-7----------7------------------------------------|
--3--5--3---5-7----7----------------------------------------------------|
------------------------------------------------------------------------|


-------------------------------------------------------------------|
-5---------5---------5---------------------------------------------|
-5--p------5---p-----5--p------------------------------------------|
---7-5--------7-5------7-5------5---p-s----------------------------|
--------7---------7--------7-------7-5-3---5--3--------------------|
--------------------------------------------------5----------------|

            
            
Suggest correction
Creating personal tab
Creating personal tab
You can edit any tab online and save it as your Personal.

You can edit, replace or remove any tab part or add personal notes – all changes will be seen only by you.

Personal tabs can be accessed anytime from any device, even offline.
Learn more »
comments
print report bad tab
5 comments total. Showing first comments.
0 reply
jwhalen 50 May 26, 2008 05:53 PM

this is terrible

0 reply
jwhalen 50 May 26, 2008 05:53 PM

who would rate this a 5?

0 reply
kenvy 210 Sep 26, 2009 01:20 PM

You notated the bends, hopos in the wrong place. lol

guest
Wanna post a correction for this tab? Suggest correction