Oops, an error
Loading. Please wait.
We have an official Razor tab made by UG professional guitarists. Check out the tab »
×
12,126 views 6 this week
1 commentread comment
1 2 3 4 5
2 more votes to show rating
add to favorites
×
Save as Personal and add changes to this tab that will be seen only by you. Learn more ›
×
You can save this tab as Personal to edit and correct it or add notes. All changes will be seen only by you. Learn more »
launch autoscroll
font size
0
reset
how to read this tab
guitar tuner
edit
Autoscroll
slow
fast
+/-
esc
set tempo
stop
Difficulty
intermediate
Foo Fighters
Razor

Hey, this is pretty basic. if you have any questions feel free to email me. gscrispy@yahoo.com

Intro                       Verse Interlude
 /  4x                    \ /  4x                        \
|--------------------------|------------------------------|
|--------------------------|------------------------------|
|--------------------------|------------------------------|
|-2--2--2--2--2--2--2--2---|-1--4--6--9--14--13--16--14---|
|--0--0--0--0--0--0--0--0--|--0--0--0--0---0---0---0---0--|
|---0--0--0--0--0--0--0--0-|---0--0--0--0---0---0---0---0-|

Verse
 /   8x                       \
|------------------------------|
|------------------------------|
|------------------------------|
|-1--4--6--9--14--13--16--14---|
|--0--0--0--0---0---0---0---0--|
|---0--0--0--0---0---0---0---0-|

Chorus
2x
|--------------------------|--------------------------|
|--------------------------|--------------------------|
|--------------------------|--------------------------|
|-9--9--9--9--9--9--9--9---|-8--8--8--8--8--8--8--8---|
|--0--0--0--0--0--0--0--0--|--0--0--0--0--0--0--0--0--|
|---0--0--0--0--0--0--0--0-|---0--0--0--0--0--0--0--0-|

                              /  (2x 2ndx)              \ 
|----------------------------|--------------------------|
|----------------------------|--------------------------|
|----------------------------|--------------------------|
|-11--9--7--6--7--9--11--9---|-9--9--9--9--9--9--9--9---|
|---0--0--0--0--0--0--0---0--|--0--0--0--0--0--0--0--0--|
|----0--0--0--0--0--0--0---0-|---0--0--0--0--0--0--0--0-|

Verse Interlude
 /    2x                      \
|------------------------------|
|------------------------------|
|------------------------------|
|-1--4--6--9--14--13--16--14---|
|--0--0--0--0---0---0---0---0--|
|---0--0--0--0---0---0---0---0-|

2nd Verse
 /   8x                       \
|------------------------------|
|------------------------------|
|------------------------------|
|-1--4--6--9--14--13--16--14---|
|--0--0--0--0---0---0---0---0--|
|---0--0--0--0---0---0---0---0-|

Chorus
2x
|--------------------------|--------------------------|
|--------------------------|--------------------------|
|--------------------------|--------------------------|
|-9--9--9--9--9--9--9--9---|-8--8--8--8--8--8--8--8---|
|--0--0--0--0--0--0--0--0--|--0--0--0--0--0--0--0--0--|
|---0--0--0--0--0--0--0--0-|---0--0--0--0--0--0--0--0-|

                              /  (2x 2ndx)              \ 
|----------------------------|--------------------------|
|----------------------------|--------------------------|
|----------------------------|--------------------------|
|-11--9--7--6--7--9--11--9---|-9--9--9--9--9--9--9--9---|
|---0--0--0--0--0--0--0---0--|--0--0--0--0--0--0--0--0--|
|----0--0--0--0--0--0--0---0-|---0--0--0--0--0--0--0--0-|

Bridge
 /   3x                                                              \
|----------------------------------|----------------------------------|
|----------------------------------|----------------------------------|
|----------------------------------|----------------------------------|
|-13--13--13--13--13--13--13--13---|-11--11--11--11--11--11--11--11---|
|---0---0---0---0---0---0---0---0--|---0---0---0---0---0---0---0---0--|
|----0---0---0---0---0---0---0---0-|----0---0---0---0---0---0---0---0-|

 /   2x                   \
|--------------------------|
|--------------------------|
|--------------------------|
|-9--9--9--9--9--9--9--9---|
|--0--0--0--0--0--0--0--0--|
|---0--0--0--0--0--0--0--0-|

Verse

Chorus

Verse Interlude

Outro

|--------------------------------|----------------------------|
|--------------------------------|----------------------------|
|--------------------------------|----------------------------|
|-12--11--9--11--12--11--9--11---|-12--11--9--7--6--7--6--4---|
|---0---0--0---0---0---0--0---0--|---0---0--0--0--0--0--0--0--|
|----0---0--0---0---0---0--0---0-|----0---0--0--0--0--0--0--0-|
 accel.
                                                              Dn stroke
|--------------------------------|----------------------------|-------|
|--------------------------------|----------------------------|-5-----|
|--------------------------------|----------------------------|-4-----|
|-12--11--9--11--12--11--9--11---|-12--11--9--7--6--4--2--4---|-2-----|
|---0---0--0---0---0---0--0---0--|---0---0--0--0--0--0--0--0--|-0-----|
|----0---0--0---0---0---0--0---0-|----0---0--0--0--0--0--0--0-|-0-----|
                                             rit.

            
            
Suggest correction
Creating personal tab
Creating personal tab
You can edit any tab online and save it as your Personal.

You can edit, replace or remove any tab part or add personal notes – all changes will be seen only by you.

Personal tabs can be accessed anytime from any device, even offline.
Learn more »
Give kudos to tab author, rate the tab!
1 2 3 4 5
comments
print report bad tab
1 comment total.
0 reply
TK1 238 Sep 02, 2007 09:03 PM

looks good, sounds horrible.

guest
Wanna post a correction for this tab? Suggest correction