Oops, an error
Loading. Please wait.

Skin And Bones bass

version 1
version 1

Whole song

Interactive

7,489 views 9 this week
no commentswrite comment
1 2 3 4 5
x 9
add to favorites
×
Save as Personal and add changes to this tab that will be seen only by you. Learn more ›
×
You can save this tab as Personal to edit and correct it or add notes. All changes will be seen only by you. Learn more »
launch autoscroll
font size
0
reset
guitar tuner
edit
Autoscroll
slow
fast
+/-
esc
set tempo
stop
Author
Difficulty
"Skin and Bones"(Live) by Foo Fighters
Album: Greatest Hits(2009)
Tuning: Standard(EADG)
Author: Ty W.(tydogg2443@aol.com)
Note: Normally when played live, bass is played on a double bass(upright acoustic) on 
of the track. Actual electric bass doesn't come in until the outro. So this is just what I play.
Feel free to add your own flair to it. 


Intro (0:00)
|Rest until 0:36|


Chorus (0:36) "Skin and Bones..."  (play very lightly)
G|----------------------------------------------|
D|--5-----5-----5-------------------------------|
A|-----5-----5-----5----------------------------|(2x)
E|----------------------5(let ring)-------------|


"I'm just Skin and Bones..."

Bridge (0:59)
G|------------------------|
D|------------------------|
A|-5--5--5--5--5--5--5--5-| (2x)
E|------------------------|


Verse (1:09) "All worn out..."
G|------------------------------------------|
D|-------5--5-------------------------------|
A|-5--5--------4--4--5--5--5--5--5--5--5--5-|(2x)
E|------------------------------------------|

Verse Outro (1:24) "The more I give..."
G|-------------------------------------------------|
D|-------5--5--------------------------------------|
A|-5--5--------4--4--5--5--4--4--5--5--4--4--5--5--|
E|-------------------------------------------------|


Chorus (1:34) "Skin and Bones..."                          (1:55)
G|-------------------------------------------------|       |------------|
D|-------------------------------------------------|       |------------|
A|-------------------------------------------------|(2x)   |------------|
E|-3-3/-10-10--3-3/-10-10--3-3/-10-10\--5--5--5--5-|       |-5--5-3-1-0-|


Bridge (1:56) "I'm just Skin..."   (2:14)
G|------------------------|       |---------------|
D|----3--5/-9-----3--5----|       |---------------|
A|-5-----------5--------3-|(4x)   |-5(Let ring)---|
E|------------------------|       |---------------|


Final Verse (2:24) "Deep Within..."     (2:40) "Tell my mom..."
G|----------------------------|       |--------------------------------|
D|-------5--------------------|       |-------5------------------------|
A|--5---------4----5----------|(2x)   |--5---------4----5--4--5--4--5--|
E|----------------------------|       |--------------------------------|


Final Chorus (2:50) "Skin and Bones..."
G|-------------------------------------------------------------|
D|5-5-5-5---------5-5-5-5---------5-5-5-5--------(3)-----------|
A|--------5-5-5-5---------5-5-5-5---------5-5-5-5--------------|(2x)
E|-------------------------------------------------5--5--5--5--|


Chorus Leadout (3:09) "Skin and Bones..."
G|--------------------------------------------------------------------------|
D|5-5-5-5---------5-5-5-5---------5-5-5-5---------3-------------------------|
A|--------5-5-5-5---------5-5-5-5---------5-5-5-5---------------------------|
E|-------------------------------------------------5--5--5--5--5--5--5-3-1-0|

"I'm just Skin and Bones..."

Outro (3:20)                             (3:57) Slide
G|-------------4-4-----------------|     |-----------|
D|-----3-3-5-5---------3-3-5-5-----|     |-----------|
A|-5-5-------------5-5---------3-3-|(8x) |-5\--------|
E|---------------------------------|     |-----------|

            
            
Suggest correction
Creating personal tab
Creating personal tab
You can edit any tab online and save it as your Personal.

You can edit, replace or remove any tab part or add personal notes – all changes will be seen only by you.

Personal tabs can be accessed anytime from any device, even offline.
Learn more »
comments
print report bad tab
guest
You may want to rate the tab now too:
select rating
Wanna post a correction for this tab? Suggest correction