Oops, an error
Loading. Please wait.

Stacked Actors bass

version 3
version 3

Whole song

Interactive

16,538 views 24 this week
5 commentsread comments
1 2 3 4 5
x 24
add to favorites
×
Save as Personal and add changes to this tab that will be seen only by you. Learn more ›
×
You can save this tab as Personal to edit and correct it or add notes. All changes will be seen only by you. Learn more »
launch autoscroll
font size
0
reset
guitar tuner
backing track
0:00
0:00
edit
Autoscroll
slow
fast
+/-
esc
set tempo
stop
Author
Normal Tuning (EADG)

This is 100% accurate, trust me.

Intro/Chorus

|-----------------------------------------------------------------|
|-----------------------------------------------------------------|
|-0--0--3-5-5-3/-10--10--3-5-5-3/-8--8--6-6-5-3-5----3-6-6-5-3----|
|-----------------------------------------------------------------|

Verse
(There's one main riff played 4 times with slight variations on the second measure.
The fourth time, however, is always different.  On each of the 4 parts except the
third, you come in after an eight rest.  3rd time starts on down beat.)
|------2--------|-----------------|
|----2----4/5---|-----------------|
|-0-----------3-|---3-------3-3-5-|
|---------------|-----5-3-5-------|

|------2--------|-----------------|
|----2----4/5---|-----------------|
|-0-----------3-|--3--------3-----|
|---------------|----5-3--5-------|

|------2--------|-----------------|
|----2----4/5---|-----------------|
|-0-----------3-|-3-5-3---3-3-----|
|---------------|-------5-----5-3-|

|------2--------|----5---7--------|
|----2----4/5---|--7---7---7------| This is the part that is different each
|-0-----------3-|-----------------| time.  The following fills go in order.
|---------------|-----------------| Just repeat the first three parts and                
                                    play fills in 4th parts place. I'm only
gonna write out the second measure cause the first always stays the same.

Fill 1:|----------------|
       |----------1-0---|
       |------0-3-------|
       |--2/3-----------|

Fill 2:|----------------|
       |----------------|  After this, you play the first two of the main 
       |--0-3-0-5/6-5---| riff and go into chorus.  Even though the song gets
       |----------------| kinda different, the bass part stays the same. But
the measure right before the chorus is different, and this is it:

Fill 3:|---------------------| After this is the first chorus.
       |---------------------|
       |-0-0-0-0-12-12-12-12-|
       |---------------------|

Fill 4:|-----------------|  This fill comes in on the down beat, unlike the
       |-4/5---5/7---7-7-| others.
       |-----3-----5-----|
       |-----------------|

Fill 5:|-----------------|
       |--7-5-----5-7----|
       |------7-6--------|
       |-----------------|

Fill 6:|---------------------|
       |---------------------|
       |-0-0-0-0-12-12-12----|
       |------------------12-|
   
Guitar Solo (Played 4x)
|---------------|        |-----------------|
|---------------|        |-----------------|
|-0--0-3--5-5-3-|x3 then |-6-6-5-3-6-6-5-3-|
|---------------|        |-----------------|

Outro
|----2----------|----2~-------|----0-2------|----2~-----|
|------2~-------|-2-----------|-2-----------|-2---------|
|-0-------------|-0-----------|-0-------5/3-|-0---------|
|---------------|-------------|-------------|-----------|

|-----2------|-----------|---------------|-------|----2~---|~2~------|
|-2-2---2~---|~2~------5-|-7--7----------|-------|-2-------|---------|
|-0-----0~---|~0~----7---|------5--7--3~-|~3~----|-0-------|---------|
|------------|-----------|---------------|-------|---------|---------|

|-7--5-4--5--4~-|~4~-----|-----------|
|---------------|--------|-----------|
|---------------|--------|-0~--------|
|---------------|--------|-----------|

This is really hard to play, but practice enough and you'll get it.
Just try reading and playing along with the CD.  Trust me, this is all right.



Any questions/comments: metjetfan10@yahoo.com


            
            
Suggest correction
Creating personal tab
Creating personal tab
You can edit any tab online and save it as your Personal.

You can edit, replace or remove any tab part or add personal notes – all changes will be seen only by you.

Personal tabs can be accessed anytime from any device, even offline.
Learn more »
comments
print report bad tab
5 comments total. Showing first comments.
0 reply
basskid99 71 Apr 05, 2006 11:27 AM

perfect

0 reply
gdrocks2230 347 Jan 09, 2007 06:25 AM

gotta say, fenderkid... you are a genius. wow. this is really really good and my band is performing at our school's afterprom and we wanted to play this song so i thank you very much for this tab.

five stars.

0 reply
bsinot1190 10 Sep 26, 2008 12:18 PM

damn dude. perfect.

guest
You may want to rate the tab now too:
select rating
Wanna post a correction for this tab? Suggest correction