Oops, an error
Loading. Please wait.
We have Chord Pro version of T-Shirt.
It's the closest thing you can get to the original song and it has interactive parts. Check out the tab »
×

T-Shirt chords

version 1
version 1

Whole song

Interactive

3,115 views 90 this week
5 commentsread comments
1 2 3 4 5
x 9
add to favorites
×
Save as Personal and add changes to this tab that will be seen only by you. Learn more ›
×
You can save this tab as Personal to edit and correct it or add notes. All changes will be seen only by you. Learn more »
launch autoscroll
font size
0
reset
transpose
0
reset
display chords
guitar tuner
edit
Autoscroll
slow
fast
+/-
esc
set tempo
stop
Strumming
There is no strumming pattern for this song yet. and get +5 IQ
Artist: Foo Fighters
Album: Concrete And Gold
Song: T-Shirt
Tuning: Standard
Contributor(s): arcticfighters, robertommcamargo (completed riff)

G
I don't wanna be king
D                 Em
I just wanna sing a love song
C                             Am
Pretend there's nothing wrong
                           G
You can sing along with me
                       D
I don't wanna be queen
                                 Em
Just trying to keep my t-shirt clean

  C       G
Aah Aah Aah Aah

C           G     Bm     Em
There's one thing I have learned
C       G
It gets much better
Bm                Em
It's going to get worse

Em Em Em Em

Am                   F#m
And you get what you deserve

e|---------------------------------------------------------|
B|---------------------------------------------------------|
G|-9-9-11-11-12-12-14-14-16-16-18-18----9-7-------7--------|
D|-x-x-x--x--x--x--x--x--x--x--x--x---------9-7-9---9-7----|
A|-7-7-9--9--10-10-12-12-14-14-16-16-----------------------|
E|---------------------------------------------------------|

(Riff done by robertommcamargo) (edited by hellix93)
e|-----------------------------|--------------------------|
B|-----------------------------|--------------------------|
G|-5---------------------------|-4------------------------|
D|-5------5--5-----------------|-4------4--2-----2--2--2--|
A|-3--5/7----5---------5-7p5---|-2--4/6----2-----2--2--2--|
E|-----------3-----5/7-------7-|-----------0-----0--0--0--|

Am                   F#m
And you get what you deserve


***********************************

| x   Dead note
| p   Pull-off
| /   Slide up

***********************************

            
            
Suggest correction
Creating personal tab
Creating personal tab
You can edit any tab online and save it as your Personal.

You can edit, replace or remove any tab part or add personal notes – all changes will be seen only by you.

Personal tabs can be accessed anytime from any device, even offline.
Learn more »
comments
print report bad tab
5 comments total. Showing first comments.
-1 reply
Shivah 10 Sep 16, 2017 05:17 AM

The riff:
------------------------------------------------
-----------------------------------------------
------5-------0-------------------4-0-2-4
------5--0-2---5------0-2-0---4----------2
------3---------5--0-2-------0-2----------2
-----------------3----------------------------0
Messy but i think this is right

+1 reply
anton2004.bk 10 Sep 22, 2017 12:16 PM

Bad work. Try the other version!

0 reply
FooFightersBigFan101 10 Nov 12, 2017 10:46 AM

Why???

guest
You may want to rate the tab now too:
select rating
Wanna post a correction for this tab? Suggest correction